Song name
# A B C D E F G H I J K L M N O P Q R S T U V W X Y Z

Relient K - Up And Up tab

Help us improve GuitareTab! Take a short survey!
----------------------------------------------------------------------------------
                               Relient K - Up And Up
----------------------------------------------------------------------------------
Artist: Relient K
ALbum: Five Score And Seven Years Ago
Year: 2007
E-M@il: goodlife_7_7@hotmail.com

Comentarios, Correcciones a mi e-mail.............
la guitarra 1 tiene un efecto raro....


Guitarra 1     0:00
----------------------------------|
----------------------------------|
---6~------8~------11~-----6~-----|
---6~------8~------11~-----6~-----|
---4~------6~------9~~-----4~-----|
----------------------------------| x1

Guitarra 2  Solo          0:00
-----------------------------------------------------------|
-------9~------9--9--7---------9--9--7----------7----------|
---6-------6------------6~--6-----------6~-----------------|
---------------------------------------------6-----6~------|
-----------------------------------------------------------|
-----------------------------------------------------------|x1

Guitarra 2             0:13
E-----------------------------------|
------------------------------------|
---6-------8-------11------6--------|
---6-------8-------11------6--------|
---4-------6-------9-------4--------|
------------------------------------|x1
PM.................................


Verse
Guitarra 1            0:26
----------------------------------|
----------------------------------|
---6~------8~------11~-----6~-----|
---6~------8~------11~-----6~-----|
---4~------6~------9~~-----4~-----|
----------------------------------|x1

Guitarra 2              0:39
----------------------------------|
----------------------------------|
---6-------8-------11------6------|
---6-------8-------11------6------|
---4-------6-------9-------4------|
----------------------------------|
PM.................................

Pre-coro
Guitarra 2           0:52
--------------------------|
--------------------------|
----------------6---------|
---4--6--8---4--6--6------| x2
---4--6--8---4--4--6------|
---2--4--6---2-----4------|
PM.........................


Coro
2 Guitarras                1:18
----------------------------------|
----------------------------------|
-----------------6--5-------------|
--4--6--8--------6--5--8--6--4----|
--4--6--8--------4--3--8--6--4----|
--2--4--6--------------6--4--2----|
            x3  PM.............

Guitar 2              1:45
----------------------------------|
----------------------------------|
---6-------8-------11------6------|
---6-------8-------11------6------|
---4-------6-------9-------4------|
----------------------------------|
PM.................................x2


Pre-coro
Guitarra 2           2:23
--------------------------|
--------------------------|
----------------6---------|
---4--6--8---4--6--6------| x1
---4--6--8---4--4--6------|
---2--4--6---2-----4------|
PM.........................

Coro
2 Guitarras                2:38
----------------------------------|
----------------------------------|
-----------------6--5-------------|
--4--6--8--------6--5--8--6--4----|
--4--6--8--------4--3--8--6--4----|
--2--4--6--------------6--4--2----|x1
            x3  PM.............

Puente
GUitarra 2         3:04
-------------------|
-------------------|
--------6----------|
--8--4--6--6-------|
--8--4--4--6-------|
--6--2-----4-------|x1

Coro
2 Guitarras                3:18
----------------------------------|
----------------------------------|
-----------------6--5-------------|
--4--6--8--------6--5--8--6--4----|
--4--6--8--------4--3--8--6--4----|
--2--4--6--------------6--4--2----|x1
            x3  PM.............x2


Guitarra 2  Solo
--------------------------------|
--7--6--------7--6--------------|
--------6-----------------------|
-----------6--------------------|
--------------------------------|
--------------------------------|
Related for Up And Up tab