Song name
# A B C D E F G H I J K L M N O P Q R S T U V W X Y Z

Relient K - Im Taking You With Me tab

Artist: Relient K
Song: I'm Taking You With Me
Album: Five Score and Seven Years Ago

Tuning: half-step down (Eb Ab Db Gb Bb eb)

Intro

eb|----------------------------------------|
Bb|----------------------------------------|
Gb|----------------------------------9\7---|
Db|----------------------------------9\7---|
Ab|----------------555/7777777777777-7\5---|
Eb|-77777\222/33333------------------------|
    ***** ************ *************

eb|----------------------------------------|
Bb|----------------------------------------|
Gb|--------------------99-9-99-9-99-9-9\7--|  x2
Db|--99-99999\55-55555-99-9-99-9-99-9-9\7--|
Ab|--99-99999\55-55555-77-7-77-7-77-7-7\5--|
Eb|--77-77777\33-33333---------------------|
                                        ^ (first time only)

Verse
eb|---------------------------------------------------------------------------|
Bb|---------------------------------------------------------------------------|
Gb|--7777777777777777---------------------------------------------------------|
Db|--7777777777777777-5555555555555555-9999999999999999-5555555555555555------|
Ab|--5555555555555555-5555555555555555-9999999999999999-5555555555555555------|
Eb|-------------------3333333333333333-7777777777777777-3333333333333333------|
     **************** **************** **************** ****************

(Guitar 2)
eb|------------------|
Bb|----7~----7~------|
Gb|-------9~---------| ->(played in background) x2
Db|------------------|
Ab|------------------|
Eb|------------------|

eb|-----------------------------------------------------------------------------------|
Bb|-----------------------------------------------------------------------------------|
Gb|--77-7-77-7-77-7-77-7--------------------------------------------------------------|
Db|--77-7-77-7-77-7-77-7-55-5-55-5-55-5-55-5-99-9-99-9-99-9-99-9-55-5-55-5-55-5-55-5--|
Ab|--55-5-55-5-55-5-55-5-55-5-55-5-55-5-55-5-99-9-99-9-99-9-99-9-55-5-55-5-55-5-55-5--|
Eb|----------------------33-3-33-3-33-3-33-3-77-7-77-7-77-7-77-7-33-3-33-3-33-3-33-3--|

Pre-Chorus
eb|----------------------------------------------------------|
Bb|----------------------------------------------------------|
Gb|----------------------------------------------------------|
Db|--2~--4~--5~--7~---22222222-44444444-55555555-7-7-7-7x----|
Ab|--2~--4~--5~--7~---22222222-44444444-55555555-7-7-7-7x----|
Eb|--0~--2~--3~--5~---00000000-22222222-33333333-5-5-5-5x----|
                      ******** ******** ********

Chorus 
eb|-----------------------------------------------------------------------|
Bb|-----------------------------------------------------------------------|
Gb|--7777777777777777-----------------------------------------------------|
Db|--7777777777777777-7777777777777777-9999999999999999-5555555555555555--|   
Ab|--5555555555555555-7777777777777777-9999999999999999-5555555555555555--|
Eb|-------------------5555555555555555-7777777777777777-3333333333333333--|

eb|-----------------------------------------------------------------------|
Bb|-----------------------------------------------------------------------|
Gb|--7777777777777777------------------5555555555555555-------------------|
Db|--7777777777777777-7777777777777777-5555555555555555-5555555555555555--|   
Ab|--5555555555555555-7777777777777777-3333333333333333-5555555555555555--|
Eb|-------------------5555555555555555------------------3333333333333333--|


Intro Riff
eb|------------------------------------------|
Bb|------------------------------------------|
Gb|--------------------99-9-99-9-99-9-99999--|  
Db|--99-99999\55-55555-99-9-99-9-99-9-99999--|
Ab|--99-99999\55-55555-77-7-77-7-77-7-77777--|
Eb|--77-77777\33-33333-----------------------|
                                        
eb|------------------------|
Bb|------------------------|
Gb|--7~~-------------------|
Db|--x-----5~---9~---5~----|
Ab|--5~~---5~---9~---5~----|
Eb|--------3~---7~---3~----|

(Guitar 2)
eb|------------------|
Bb|----7~----7~------|
Gb|-------9~---------| ->(played in background) x2
Db|------------------|
Ab|------------------|
Eb|------------------|

eb|---------------------------------------------------------------------|
Bb|---------------------------------------------------------------------|
Gb|--77-7-77-7-77-7-77-7------------------------------------------------|
Db|--77-7-77-7-77-7-77-7-55-5-55-5-55-5-55-5-99-9-99-9-99-9-99-9--5~~---|
Ab|--55-5-55-5-55-5-55-5-55-5-55-5-55-5-55-5-99-9-99-9-99-9-99-9--5~~---|
Eb|----------------------33-3-33-3-33-3-33-3-77-7-77-7-77-7-77-7--3~~---|


Pre-Chorus
eb|------------------------------------------------------------------|
Bb|------------------------------------------------------------------|
Gb|------------------------------------------------------------------|
Db|--2-222222-4-444444-5-555555-7-777777--2-2-4-4-5-5-7-7-7-7xxxxx---|
Ab|--2-222222-4-444444-5-555555-7-777777--2-2-4-4-5-5-7-7-7-7xxxxx---|
Eb|--0-000000-2-222222-3-333333-5-555555--0-0-2-2-3-3-5-5-5-5xxxxx---|
       ******   ******   ******   ******

Chorus 
eb|-----------------------------------------------------------------------|
Bb|-----------------------------------------------------------------------|
Gb|--7777777777777777-----------------------------------------------------|
Db|--7777777777777777-7777777777777777-9999999999999999-5555555555555555--|   
Ab|--5555555555555555-7777777777777777-9999999999999999-5555555555555555--|
Eb|-------------------5555555555555555-7777777777777777-3333333333333333--|

eb|-----------------------------------------------------------------------|
Bb|-----------------------------------------------------------------------|
Gb|--7777777777777777------------------5555555555555555-------------------|
Db|--7777777777777777-7777777777777777-5555555555555555-5555555555555555--|   
Ab|--5555555555555555-7777777777777777-3333333333333333-5555555555555555--|
Eb|-------------------5555555555555555------------------3333333333333333--|

Bridge
eb|---------------------------|
Bb|---------------------------|
Gb|--7~----------5~-----------|
Db|--7~----7~----5~----5~-----|   
Ab|--5~----7~----3~----5~-----|
Eb|--------5~----------3~-----|

eb|--------------------------------------------------------------------|
Bb|--------------------------------------------------------------------|
Gb|--7-7-7-7-7-7-7-7-----------------5-5-5-5-5-5-5-5-------------------|
Db|--7-7-7-7-7-7-7-7-7-7-7-7-7-7-7-7-5-5-5-5-5-5-5-5-5-5-5-5-5-5-5-5---|   
Ab|--5-5-5-5-5-5-5-5-7-7-7-7-7-7-7-7-3-3-3-3-3-3-3-3-5-5-5-5-5-5-5-5---|
Eb|------------------5-5-5-5-5-5-5-5-----------------3-3-3-3-3-3-3-3---|

eb|-----------------------------------------------------------------------|
Bb|-----------------------------------------------------------------------|
Gb|--7777777777777777------------------5555555555555555-------------------|
Db|--7777777777777777-7777777777777777-5555555555555555-5555555555555555--|   
Ab|--5555555555555555-7777777777777777-3333333333333333-5555555555555555--|
Eb|-------------------5555555555555555------------------3333333333333333--|

Chorus 
eb|-----------------------------------------------------------------------|
Bb|-----------------------------------------------------------------------|
Gb|--7777777777777777-----------------------------------------------------|
Db|--7777777777777777-7777777777777777-9999999999999999-5555555555555555--|   
Ab|--5555555555555555-7777777777777777-9999999999999999-5555555555555555--|
Eb|-------------------5555555555555555-7777777777777777-3333333333333333--|

eb|-----------------------------------------------------------------------|
Bb|-----------------------------------------------------------------------|
Gb|--7777777777777777------------------5555555555555555-------------------|
Db|--7777777777777777-7777777777777777-5555555555555555-5555555555555555--|   
Ab|--5555555555555555-7777777777777777-3333333333333333-5555555555555555--|
Eb|-------------------5555555555555555------------------3333333333333333--|

Outro
eb|----------------------------------------|
Bb|----------------------------------------|
Gb|--------------------99-9-99-9-99-9-9\7--|  x2
Db|--99-99999\55-55555-99-9-99-9-99-9-9\7--|
Ab|--99-99999\55-55555-77-7-77-7-77-7-7\5--|
Eb|--77-77777\33-33333---------------------|


| /  slide up
| \  slide down
| h  hammer-on
| p  pull-off
| ~  vibrato
| +  harmonic
| x  Mute note
===============================================================================
Tap to rate this tab
 
# A B C D E F G H I J K L M N O P Q R S T U V W X Y Z