Song name
# A B C D E F G H I J K L M N O P Q R S T U V W X Y Z

Relient K - Breakfast At Timpanis tab

tabbed by Kevin Rummelt
aim:guitar8009
email:guitar8009@aim.com
phone#:867-5309


capo on 4th frett
standard tunning
|--0-0-0-0-0---0---0---0---0---0-0-0-0-0---0---0---0------|
|--1-1-1-1-1---1---1---1---1---1-1-1-1-1---1---1---1------|
|--0-0-0-0-0---0---0---0---0---0-0-0-0-0---0---0---0------|
|--2-2-2-2-2---3---2---0---2---2-2-2-2-2---0---0---0------|
|--3-3-3-3-3---3---3---3---3---0-0-0-0-0---2---3---3------|
|--------------------------------------------------3------|

that is what they do through the whole song but they 
do stop doing hammer on's after a while so listen 
when they stop and that is pretty much it at the "i think i cant"
part or whatever just play the chords for the intro and if i knew
the name of the chords i would tell ya


cool violin part (still with capo)
|---------------------------------------------------------|
|---------------------------------------------------------|
|---------------------------------------------------------|
|--2--2--2-2-2--3--2--0--2--------------------------------|
|----------------------------3--3--3-3-3--2--3--5---------|
|---------------------------------------------------------|



without the capo the chords are 

E  Esus  C#m7  B

E,022100  Esus,002200  C#m7,x46654  Bx24442  


this song has two guitars and i think what they do
is one plays with the capo and the other plays 
without the capo and they harmonize together

well there yall go and plzz comment      
Tap to rate this tab
# A B C D E F G H I J K L M N O P Q R S T U V W X Y Z