Song name
# A B C D E F G H I J K L M N O P Q R S T U V W X Y Z

Relient K - Life After Death Taxes tab

Tuning: Drop D

Intro Sequence:
e|-------------------------------------------------|
B|-------------------------------------------------|
G|-------------------------------------------------|
D|-x-11-11-11-11--10-10-10--10--10-8-8-8-----------|   
A|-x-8--8--8--8---8--8--8---8---8--8-8-8-----------|
D|-x-8--8--8--8---8--8--8---8---8--8-8-8-----------|

e|-------------------------------------------------|
B|-------------------------------------------------|
G|-------------------------------------------------|
D|-x-11-11-11-11--10-10-10--10--10-8-8-8-----------|   
A|-x-8--8--8--8---8--8--8---8---8--8-8-8-----------|
D|-x-8--8--8--8---8--8--8---8---8--8-8-8-----------|

e|---------------------------------------------------|
B|---------------------------------------------------|
G|---------------------------------------------------|
D|-x-4-4-4--4-4-4--4--6-6-6-6--6-6-6-6--6--10-8------|
A|-x-4-4-4--4-4-4--4--4-4-4-4--6-6-6-6--6--------6-8-|
D|-x-4-4-4--4-4-4--4--4-4-4-4--6-6-6-6--6------------|

Verse:
e|------------------------------------------------|
B|------------------------------------------------|
G|------------------------------------------------|
D|-8-xxxxxxxx--4--4--4--4--8--8--6--6--4--4--4--4-|
A|-8-xxxxxxxx--4--4--4--4--8--8--6--6--4--4--4--4-|
D|-8-xxxxxxxx--4--4--4--4--8--8--6--6--4--4--4--4-| 


e|------------------------------------------------|
B|------------------------------------------------|
G|------------------------------------------------|
D|-8-xxxxxxxx--4--4--4--4--8--8--6--6--4--4--4--4-|
A|-8-xxxxxxxx--4--4--4--4--8--8--6--6--4--4--4--4-|
D|-8-xxxxxxxx--4--4--4--4--8--8--6--6--4--4--4--4-|

Pre-Chorus:
e|-----------------------------------------|
B|-----------------------------------------|
G|-----------------------------------------|
D|-11-11-11-11-11-11-11-11-4-4-4-4-4-4-4-4-|
A|-11-11-11-11-11-11-11-11-4-4-4-4-4-4-4-4-|
D|-11-11-11-11-11-11-11-11-4-4-4-4-4-4-4-4-|

e|-----------------------------------------|
B|-----------------------------------------|
G|-----------------------------------------|
D|-11-11-11-11-11-11-11-11-6-6-6-6-8-8-4-4-|
A|-11-11-11-11-11-11-11-11-6-6-6-6-8-8-4-4-|
D|-11-11-11-11-11-11-11-11-6-6-6-6-8-8-4-4-|

e|-----------------------------------------|
B|-----------------------------------------|
G|-----------------------------------------|
D|-11-11-11-11-11-11-11-11-4-4-4-4-4-4-4-4-|
A|-11-11-11-11-11-11-11-11-4-4-4-4-4-4-4-4-|
D|-11-11-11-11-11-11-11-11-4-4-4-4-4-4-4-4-|

e|-----------------------------------------|
B|-----------------------------------------|
G|-----------------------------------------|
D|-11-11-11-11-11-11-11-11-6-6-6-6-8-8-4-4-|
A|-11-11-11-11-11-11-11-11-6-6-6-6-8-8-4-4-|
D|-11-11-11-11-11-11-11-11-6-6-6-6-8-8-4-4-|

Intro

Verse

Pre-Chorus

Chorus:
e|----------------------------------------|
B|----------------------------------------|
G|----------------------------------------|
D|-888888888888-666666666666-444444444444-|
A|-888888888888-666666666666-444444444444-|              
D|-888888888888-666666666666-444444444444-|               
                              
e|----------------------------|            
B|----------------------------|        
G|----------------------------|
D|-11-11-11-11-11-11--333333--|
A|-11-11-11-11-11-11--333333--|
D|-11-11-11-11-11-11--333333--|

e|----------------------------------------|
B|----------------------------------------|
G|----------------------------------------|
D|-888888888888-666666666666-444444444444-|
A|-888888888888-666666666666-444444444444-|              
D|-888888888888-666666666666-444444444444-|               
                              
e|-------------------------------------------------------|            
B|-------------------------------------------------------|        
G|-------------------------------------------------------|
D|-11-11-11-11-11-11--333333--444444444444-666666-3~~~~~-|
A|-11-11-11-11-11-11--333333--444444444444-666666-3~~~~~-|
D|-11-11-11-11-11-11--333333--444444444444-666666-3~~~~~-|

Intro

Everything after this is a repeat of something before.
Tap to rate this tab
# A B C D E F G H I J K L M N O P Q R S T U V W X Y Z