Song name
# A B C D E F G H I J K L M N O P Q R S T U V W X Y Z

Rem - Living Well Is The Best Revenge tab

-------------------------------------------------------------------------------
		     Living well is the best revenge - R.E.M.
-------------------------------------------------------------------------------
Tabbed by: MisterJones
Email: misterjones987@yahoo.de

For questions or comments send an email.

Tuning: standard

    B
e|--------2---------0-----------------------------------------------------|
B|----------0-2p0-------0---0---------------------------------------------|
G|------4---------4-------4-----------------------------------------------|
D|------------------------------------------------------------------------|
A|--0h2-------------------------------------------------------------------|
E|------------------------------------------------------------------------|
Tap to rate this tab
 
# A B C D E F G H I J K L M N O P Q R S T U V W X Y Z