Song name
# A B C D E F G H I J K L M N O P Q R S T U V W X Y Z

Rem - Until The Day Is Done tab

-------------------------------------------------------------------------------
		     Until the day is done - R.E.M.
-------------------------------------------------------------------------------
Tabbed by:MisterJones
Email:misterjones987@yahoo.de
Any comments or questions are welcome.

Tuning: Standard

Here is the picking pattern of the intro and the verse. Chorus is strummed. 

Intro(repeated):
    D
E|---------------------|
B|--3--3---3-3---3---3-|
G|--2--------0h2-------|
D|--0--------0---------|
A|---------------------|
E|---------------------|            
                
Verse:
    D                     C        G   
E|---------------------|--------------------|
B|--3--3---3-3---3---3-|-----3---3----------|
G|--2--------0h2-------|--0-----------------|
D|--0--------0---------|--2--------------0--|
A|---------------------|--3-----------2-----|
E|---------------------|-----------3--------|
                                    
    D          G6           
E|---------------------|---------------------|
B|--3--3---3-3/5-5---5-|--5/3-3---3----------|
G|--2--------2/4-------|--4/2----------------|
D|--0--------3/5-------|--5/3-------2-----0--|
A|---------------------|---------------3-----|
E|---------------------|---------------------|
Tap to rate this tab
# A B C D E F G H I J K L M N O P Q R S T U V W X Y Z