Song name
# A B C D E F G H I J K L M N O P Q R S T U V W X Y Z

Rem - Camera tab

-------------------------------------------------------------------------------
			     CAMERA - Editors
-------------------------------------------------------------------------------

This is Tom's keyboard aranged for guitar

e|-----5--3--0-----5--3-|
B|--3-----------3-------|
G|----------------------|
D|----------------------|
A|----------------------|
E|----------------------|

e|---5--5--3-0---5--5-3-|
B|-3-----------3--------|
G|----------------------|
D|----------------------|
A|----------------------|
E|----------------------|
Keep close to me now I'll be your guide

e|----5--5--3-0---5--3--|
B|--3-----------3-------|
G|----------------------|
D|----------------------|
A|----------------------|
E|----------------------|
Once we have black hearts then love dies
Tap to rate this tab
# A B C D E F G H I J K L M N O P Q R S T U V W X Y Z