Song name
# A B C D E F G H I J K L M N O P Q R S T U V W X Y Z

Rem - Radio Song tab

----------10--------|
------12------12----|
--12----------------|
--------------------|   2x
--------------------|
--------------------|

----------10--------|
------13------13----|
--12----------------|
--------------------|   2x
--------------------|
--------------------|

continue this throughout the starting singing too
Tap to rate this tab
# A B C D E F G H I J K L M N O P Q R S T U V W X Y Z