Song name
# A B C D E F G H I J K L M N O P Q R S T U V W X Y Z

Rem - Star 69 tab

Song: Star 69 (Wait For Nothing)
Artist: Noise Therapy
Album: Tension
Tabbed by: Adam (kaffe_drick@hotmail.com)
Comment: I think this is how they play!


Intro:

e|--------------|
b|--------------|
g|--------------|
d|-----6------6-|
a|-----4------4-|
E|-6-6----4-4---|

Heavy Part:

e|------------------|
b|------------------|
g|------------------|
d|-------6--------6-|
a|-------4--------4-|
E|-0-000---0000-0---|

Verse:

Guitar 1:
e|----------|
b|----------|
g|----------|
d|-5--------|
a|-3--6--5--|
E|----4--3--|

Guitar 2: (I think it is something like this, it sounds good when you play.
Try to slide around these tones, to get the right sound!)
e|--------------|
b|--8--6--4--6--|
g|--------------|
d|--------------|
a|--------------|
E|--------------|

Refrain:

e|--------------|
b|--------------|
g|--------------|
d|-----6------6-|
a|-----4------4-|
E|-6-6----4-4---|
Tap to rate this tab
# A B C D E F G H I J K L M N O P Q R S T U V W X Y Z