Song name
# A B C D E F G H I J K L M N O P Q R S T U V W X Y Z

Rem - Mad World tab

Mad World

Verse:
e |-----------------------------------------------------|
B |-----0-----0-----3-----3------------------5-----5----|
G |-----0-----0-----4-----4-----2-----2------6-----6----|
D |--2-----2-----5-----5--------4-----4---7-----7-------|
A |--------------------------5-----5--------------------|
E |-----------------------------------------------------|
Repeat as needed

Chorus:
e |-----------------------------------------------------|
B |----0-----0-----5-----5-----0-----0-----5-----5------|
G |----0-----0-----6-----6-----0-----0-----6-----6------|
D |-2-----2-----7-----7-----2-----2-----7-----7---------|
A |-----------------------------------------------------|
E |-----------------------------------------------------|



Verse:
e |---0-----------0------------0------------0------------|
B |---0-----------2------------0------------6------------|
G |---0-----------0------------2------------5------------|
D |---2-----------5------------4------------7------------|
A |---2-----------5------------5------------0------------|
E |---0-----------0------------x------------x------------|
     Em          Gm/E          D            A

During the Chorus just play the Em and A. 

Tap to rate this tab
 
# A B C D E F G H I J K L M N O P Q R S T U V W X Y Z