Song name
# A B C D E F G H I J K L M N O P Q R S T U V W X Y Z

Rem - Gardening At Night tab

------------------------------------------------------------------------
			     GARDENING AT NIGHT- REM
------------------------------------------------------------------------
Tabbed by: Barnaby Wilde
Email:

Pre-Intro: x4
e|---------------------------------------------------------------------|
B|---------------------------------------------------------------------|
G|----2---3-2-0-2------------------------------------------------------|
D|-00---0--------------------------------------------------------------|
A|---------------------------------------------------------------------|
E|---------------------------------------------------------------------|

Intro and Outro: x4		      2nd Guitar: High e tuned to d
e|-3-2-0-0-0-------------------------------0-0-0-0-0-------------------|
B|-0-0-0-3-1-------------------------------8-7-5-3-1-------------------|
G|-0-0-0-0-0-----------------------------------------------------------|
D|-5-4-2-0-2-----------------------------------------------------------|
A|-------2-3-----------------------------------------------------------|
E|-------3-0-----------------------------------------------------------|

Verse: x2
D5-C-G(add B)
e|-0-0-0--00000000000000-----------------------------------------------|
B|-3-1-3--33333333222323-----------------------------------------------|
G|-2-0-4--00000000000000-----------------------------------------------|
D|---2-0---------------------------------------------------------------|
A|---3-2---------------------------------------------------------------|
E|---0-3---------------------------------------------------------------|

Chorus:
     "Gardening at night ... "
e|-0-0-0-0-------------------------------------------------------------|
B|-3-3-2-3-------------------------------------------------------------|
G|-2-0-2-2-------------------------------------------------------------|
D|---------------------------------------------------------------------|
A|---------------------------------------------------------------------|
E|---------------------------------------------------------------------|

Bridge: Picked x4
   "The neighbors go to bed at two ... "
e|-0-0-----------------------------------------------------------------|
B|-3-2-----------------------------------------------------------------|
G|-4-2-----------------------------------------------------------------|
D|---------------------------------------------------------------------|
A|---------------------------------------------------------------------|
E|---------------------------------------------------------------------|

Riff to Verse:
"..arranged ..."
e|-0000000000000000----------------------------------------------------|
B|-3333333322222220----------------------------------------------------|
G|-0000000000000000----------------------------------------------------|
D|---------------------------------------------------------------------|
A|---------------------------------------------------------------------|
E|---------------------------------------------------------------------|

Riff to Outro:
e|---------------------------------------------------------------------|
B|-3/5/6/5-------------------------------------------------------------|
G|-2/4/5/4-------------------------------------------------------------|
D|---------------------------------------------------------------------|
A|---------------------------------------------------------------------|
E|---------------------------------------------------------------------|

End:
e|-------3-------------------------------------------------------------|
B|-------3-------------------------------------------------------------|
G|-4-2-4-0-------------------------------------------------------------|
D|-------0-------------------------------------------------------------|
A|-------2-------------------------------------------------------------|
E|-------3-------------------------------------------------------------|

-BW


************************************

| /   slide up
| \   slide down
| h   hammer-on
| p   pull-off
| ~   vibrato
| +   harmonic
| x   Mute note
| b   Bend
| pb  Pre-bend
| br  Bend release
| pbr Pre-bend release
| brb Bend release bend

************************************
Tap to rate this tab
 
# A B C D E F G H I J K L M N O P Q R S T U V W X Y Z