Song name
# A B C D E F G H I J K L M N O P Q R S T U V W X Y Z

Rem - Laughing tab

------------------------------------------------------------------------
			     Laughing - REM
------------------------------------------------------------------------
Tabbed by: Barnaby Wilde

Approximate Bass Intro for guitar:
e|---------------------------------------------------------------------|
B|---------------------------------------------------------------------|
G|---------------------------------------------------------------------|
D|-------------------------7-9-9-9-9-9-9-------------------------------|
A|-4-4-4-4-4-4--4-4----7-7---------------7-----------------------------|
E|----------4-------4-7-7----------------------------------------------|

Verse:
C#m-C#m(add e for picking)-E
e|-4--7--7---------------------------------------------------------------|
B|-5--5--9---------------------------------------------------------------|
G|-6--6--9---------------------------------------------------------------|
D|-6--6--9---------------------------------------------------------------|
A|-4--4--7---------------------------------------------------------------|
E|-4--4--7---------------------------------------------------------------|

Bridge to Chorus:
A-E-C#m-C#m(add e)x2 then -E
e|-5--7--4--7--4--7----0---------------------------------------------------|
B|-5--9--5-------------0---------------------------------------------------|
G|-6--9--6--------x2---1---------------------------------------------------|
D|-7--9--6-------------2---------------------------------------------------|
A|-7--7--4-------------2---------------------------------------------------|
E|-5--7--4-------------0---------------------------------------------------|

Chorus: 
e|--0--0--0--0--0--0--0--0--0--0-------------------------------------------|
B|--0--0--0--0--0--0--0--0--0--0-------------------------------------------|
G|--2--4--2--4--2--4--1--2--1--1-------------------------------------------|
D|--4--6--4--6--4--6--2--2--2--2-------------------------------------------|
A|--------------------2--0--0--2-------------------------------------------|
E|--------------------0----------------------------------------------------|

Bridge to Verse:
"In a room ..."
e|--0--0-------------------0---------0-----------------------------------|
B|--5--0--------0------0---5--5-4-0--0-------0---------------------------|
G|--6--1---1-2h--1-2h------6---------1--1-2h---2-1-0---------------------|
D|-----2-2---------------------------2-----------------------------------|
A|-----2-----------------------------2-----------------------------------|
E|-----0-----------------------------0-----------------------------------|
Tap to rate this tab
 
# A B C D E F G H I J K L M N O P Q R S T U V W X Y Z