Song name
# A B C D E F G H I J K L M N O P Q R S T U V W X Y Z

Rem - Radio Free Europe tab

------------------------------------------------------------------------
			     Radio Free Europe - REM
------------------------------------------------------------------------
Tabbed by: Barnaby Wilde
Email:

For Verses strum, Bridges pick.

Verse:
A-D-E
e|--0--2-0-----------------------------|
B|--0--3-0-----------------------------|
G|--2--2-1-----------------------------|
D|--2--0-2-----------------------------|
A|--0----2-----------------------------|
E|--0----0-----------------------------|

Bridge 1:
"Radio station ... "
e|--0--0--0-0-0----0--0--0----0--------|
B|--0--0--0-0-0----0--0--0----0--------|
G|--3--6--1-2-1----3--6--8----1--------|
D|--4--7--2-2-2----4--7--9----2--------|
A|--4--7--2-0-2----4--7--9----2--------|
E|--0--0--0-0-0----0--0--0----0--------|

Chorus:
"Calling on, in transit ..."
e|--7--5-5-5---------------------------|
B|--9--5-5-5---------------------------|
G|--9--6-7-6---------------------------|
D|--9--7-7-7---------------------------|
A|--7--7-5-7---------------------------|
E|--7--5-5-5---------------------------|

Bridge 2:
"Decide yourself ..."
e|--0--0-5-----------------------------|
B|--2--0-0-----------------------------|
G|--2--6-6-----------------------------|
D|--2--7-7-----------------------------|
A|--0--7-7-----------------------------|
E|--0--0-0-----------------------------|

End with E/A.
Tap to rate this tab
 
# A B C D E F G H I J K L M N O P Q R S T U V W X Y Z