Rem - Moral Kiosk tab

------------------------------------------------------------------------
			     Moral Kiosk - REM
------------------------------------------------------------------------
Tabbed by: Barnaby Wilde
Email:

Intro and Chorus: 
e|-0-0-0-0-0-0-0-0-0-0-----------------------------|
B|-3-3-3-3-3-3-3-3-3-3-----------------------------|
G|-4-2-2-4-2-2-4-2-2-4-----------------------------|
D|-0-0-0-0-0-0-0-0-0-0-----------------------------|
A|-------------------------------------------------|
E|-------------------------------------------------|

Verse:
e|-10-10---0---------------------------------------|
B|--x--x---0--0-----0------------------------------|
G|--7--6---1-3-3-1-3-3-1---------------------------|
D|--7--7---2---------------------------------------|
A|---------2---------------------------------------|
E|---------0---------------------------------------|

Bridge 1: 
"So much more ..."
e|-0-0-0-0-----------------------------------------|
B|-0-0-0-0-----------------------------------------|
G|-2-4-9-4-----------------------------------------|
D|-4-6-9-4-----------------------------------------|
A|-4-6-7-2-----------------------------------------|
E|-0-0-0-0-----------------------------------------|

Bridge 2: Pick last B chord formation
e|-0-0-0-0-0-0-2-------------------------------------|
B|-0-0-0-0-0-0-4-------------------------------------|
G|-7-6-4-6-7-6-4-------------------------------------|
D|-7-6-4-6-7-6---------------------------------------|
A|-5-4-2-4-5-4---------------------------------------|
E|-0-0-0-0-0-0---------------------------------------|

Bridge 3: x4 During final chorus
Only go to the 15/12 part 1st and 3rd times through
e|-0-0-0-0-0-0-15-12-15-12--------------------------|
B|-12-10-12-12-0-0-0-0-0-0--------------------------|
G|-0-0-0-0-0-0--------------------------------------|
Tap to rate this tab
 
# A B C D E F G H I J K L M N O P Q R S T U V W X Y Z