Song name
# A B C D E F G H I J K L M N O P Q R S T U V W X Y Z

Rem - Catapult tab

------------------------------------------------------------------------
			     Catapult - REM
------------------------------------------------------------------------
Tabbed by: Barnaby Wilde

Intro:
No guitar, but play G-Em-A with Bass

Verse 1:
e|---------------------------------|
B|---------------------------------|
G|--7-7-7-4-4-4-2-2-2-4b-2-2-------|
D|-5-5-5-2-2-2-0-0-0------0-0------|
A|---------------------------------|
E|---------------------------------|

e|------------------------------------|
B|------------------------------------|
G|--7-7-7-4-4-4-2-2-2-2-4h-4-2-4h-4-2-|
D|-5-5-5-2-2-2-0-0-0--0-0-0--0-0--0-0-|
A|------------------------------------|
E|------------------------------------|

Bridge: x4
"Did we miss anything ... "
                                 Hit A before Chorus
e|-------------------------------------------|
B|---------0---------------------2-2-2-2-2---|
G|-5>7<5--0-2-2-2-2-2-2-2-2------2-2-2-2-2---|
D|-------2--0-0-0-0-0-0-0-0------2-2-2-2-2---|
A|-------------------------------------------|
E|-------------------------------------------|

Chorus: 
e|-2-0-2--9--9--9--9-10-10------------------|
B|-3-3-3-10-10-10-10-10-10------------------|
G|-2-2-2--9--9--9--9--9--9------------------|
D|-0-0-0--0--0--0--0--0--0------------------|
A|------------------------------------------|
E|------------------------------------------|

Verse 2:
Starting with second verse "It's 9 o'clock ..."
e|-0-0-2-3-2------0-2-0-2-3-----------|
B|-0-0------3-0--3--------------------|
G|-4-4---------2----------------------|
D|-0-0--------------------------------|
A|------------------------------------|
E|------------------------------------|

e|-0-0-2-3-2--------------------------|
B|-0-0------3-0-----------------------|
G|-4-4---------2-2-2-2-4h-2-4h-4-4----|
D|-0-0-----------0-0-0--0-0--0-0-0----|
A|------------------------------------|
E|------------------------------------|

Bridge 2:
"The porch ... "
e|--0--0--0----0--0--0-2--0--0----0--0--0----2--2--2--0--|
B|---3--3--3----3--3----3--3--3----3--3--3----3--3----2--|
G|-0--0--0--0-2--2--2----2--2--2-0--0--0--0-2--2--2---2--|
D|----------------------------------------------------2--|
A|----------------------------------------------------0--|
E|-------------------------------------------------------|
Tap to rate this tab
 
# A B C D E F G H I J K L M N O P Q R S T U V W X Y Z