Song name
# A B C D E F G H I J K L M N O P Q R S T U V W X Y Z

Rem - West Of The Fields tab

------------------------------------------------------------------------
			     West Of The Fields - REM
------------------------------------------------------------------------
Tabbed by: Barnaby Wilde
Email:

Intro:
e|-1-1-1-1---|
B|-1-0-1-0---|
G|-2-2-2-2---|
D|-3-3-3-3---|
A|-3-3-3-3---|
E|-1-0-1-0---|

Verse:
e|-7-5-6-5-0-0--3-1-1-1-1-|
B|-8-7-------1--3-1-0-1-0-|
G|-9-7-------2--0-2-2-2-2-|
D|-9-7-------3--0-3-3-3-3-|
A|-7-5-------0--2-3-3-3-3-|
E|-7-5-------0--3-1-0-1-0-|

Chorus:
e|-0-3------0-------------------------|
B|-0-3------1-------------------------|
G|-0-0-x8---2-------------------------|
D|-2-0------2-------------------------|
A|-2-2------0-------------------------|
E|-0-3------0-------------------------|

Bridge :
"The outer walls ..."
e|-0-1-1-3---|
B|-0-1-3-3---|
G|-0-2-2-0---|
D|-2-3-0-0---|
A|-2-3---2---|
E|-0-1---3---|

Second Guitar on Last Verse:
e|-3-3-3-5-2-2-3-2-0------|
B|------------------1-1---|

End on Em
Tap to rate this tab
 
# A B C D E F G H I J K L M N O P Q R S T U V W X Y Z