Song name
# A B C D E F G H I J K L M N O P Q R S T U V W X Y Z

Rem - We Walk tab

------------------------------------------------------------------------
			     We Walk - REM
------------------------------------------------------------------------
Tabbed by: Barnaby Wilde
Email:
Tune strings up 1/2 step.

Intro/Chorus: F-Dm-F-G
e|-1-1-1-1-1-1-3----|
B|-1-1-3-3-1-1-3----|
G|-2-2-2-2-2-2-4----|
D|-3-2-0-0-3-2-5----|
A|------------------|
E|------------------|

Verse: C-Am (x6)
e|----0-------0------|
B|-----1-------1-----|
G|---0--0----2--0----|
D|--2-------2--------|
A|-3-----3-0---------|
E|-------------------|

Em
e|------7--------|
B|-----8---------|
G|----9----------|
D|---9-----------|
A|--7------------|
E|-7-------------|

Bridge (Picked):
Am-F-Bb-C (x3)

Second Guitar Riff:
e|----------------------|
B|----------------------|
G|----------------------|
D|-3-2-0----------------|
A|------3-3-2-0---------|
E|-------------1--------|

Am-F-Bb-Bb/B/C

Second Guitar Riff:
e|----------------------|
B|----------------------|
G|----------------------|
D|-3-2-0----------------|
A|------1-2-3-----------|
E|----------------------|
Tap to rate this tab
 
# A B C D E F G H I J K L M N O P Q R S T U V W X Y Z