Rem - Second Guessing tab

------------------------------------------------------------------------
			Second Guessing - REM
------------------------------------------------------------------------
Tabbed by: Barnaby Wilde
Email:

Intro and Verse Transition
e|-0-0-0-0-0-0------|
B|-0-0-0-0-0-0------|
G|-9-9-9-9-9-9------|
D|-9-9-9-9-9-9------|
A|-7-7-7-7-7-7------|
E|-0-0-0-9-9-9------|

Verse
e|-0-0-0-0-0-0-----0---|
B|-0-0-0-0-0-0-----0---|
G|-9-9-9-9-9-9-----8---|
D|-9-9-9-9-9-9-x3--9---|
A|-7-7-7-7-7-7-----9---|
E|-0-0-0-9-9-9-----7---|

Bridge to chorus
e|-0-0-0----------------------------|
B|-0-0-0----------------------------|
G|-6-4-2----------------------------|
D|-7-5-4----------------------------|
A|-7-5-0----------------------------|
E|-5-3-0----------------------------|

Chorus
e|-0-3-----0------|
B|-3-3-----0------|
G|-2-4-x3--2------|
D|-0-5-----4------|
A|---5-----0------|
E|---3-----0------|
Tap to rate this tab
 
# A B C D E F G H I J K L M N O P Q R S T U V W X Y Z