Rem - Letter Never Sent tab

------------------------------------------------------------------------
			Letter Never Sent - REM
------------------------------------------------------------------------
Tabbed by: Barnaby Wilde
Email:

Tune down a 1/2 step
Intro/ Verse
d#|-------------------------------|
A#|-------------------------3-----|
F#|-2-2-2-2-0-0-0-0-0-0-0-----0---|
C#|-0-0-0-0-4-4-4-4-2-2-2--2------|
G#|----------------------3--------|
D#|-------------------------------|

Bridge to Chorus
d#|-2-2-2-2-3-3-3-3---------------|
A#|-3-3-3-3-3-3-3-3---------------|
F#|-2-2-2-2-0-0-0-0---------------|
C#|-0-0-0-0-0-0-0-0---------------|
G#|---------2-2-2-2---------------|
D#|---------3-3-3-3---------------|

Chorus
d#|-0---------3---------------------|
A#|-2---------3---------------------|
F#|-2--2-0----0---------------------|
C#|-2-----2-0-0---------------------|
G#|-0---------2---------------------|
D#|-0---------3---------------------|

Middle Bridge
"When I'm moving too fast ... "
d#|-0--0----2-2-2-3-2--0--0--3-----|
A#|-7--2--3-3-3-3-3-3--7--2--3-----|
F#|-9--2--2-2-2-2-2-2--9--2--0-----|
C#|-9--2---------------9--2--0-----|
G#|----0---------------------2-----|
D#|--------------------------3-----|

Last Verse:
"The water is evening now ..."
d#|--------------------------------------|
A#|-3-------------------3----------------|
F#|-2--------------0----2----------------|
C#|-0-0-0-2-4-2-0-2-2-0-0-0-0-2-4-2------|
G#|--------------------------------------|
D#|--------------------------------------|

End on A.
-BW
Tap to rate this tab
 
# A B C D E F G H I J K L M N O P Q R S T U V W X Y Z