Song name
# A B C D E F G H I J K L M N O P Q R S T U V W X Y Z

Rem - Feeling Gravitys Pull tab

------------------------------------------------------------------------
		Feeling Gravitys Pull - REM
------------------------------------------------------------------------
Tabbed by: Barnaby Wilde
Email:

Intro/Verse
e|-7----7------0----------(7)---------(5)------|
B|--7-10-7-10-0-0---------(7)---------(5)------|
G|------------------------(7)---------(5)------|
D|----------------x-x-x-x-(7)-x-x-x-x-(5)------|
A|----------------x-x-x-x-(7)-x-x-x-x-(5)------|
E|----------------7-x-x-7-(7)-7-x-x-7-(5)------|

e|-7----7------0----------(7)---------(12)------|
B|--7-10-7-10-0-0---------(7)---------(12)------|
G|------------------------(7)---------(12)------|
D|----------------x-x-x-x-(7)-x-x-x-x-(12)------|
A|----------------x-x-x-x-(7)-x-x-x-x-(12)------|
E|----------------7-x-x-7-(7)-7-x-x-7-(12)------|

Variations:
In place of Harmonic 7:

e|-0--------|
B|-0--------|
G|-7--------|
D|-0--------|
A|----------|
E|----------|

In place of Harmonic 5 or 12:
e|-7--0--12----|
B|-8--0--12----|
G|-0--9--------|
D|-0--0--------|
A|-------------|
E|-------------|

Chorus: 
e|----------------------|
B|---0---0---0---0------|
G|----0---0---0---0-----|
D|--2---2---2---4-------|
A|----------------------|
E|-0---2---3---5--------|


Bridge to Verse and End: (x3)
e|-0-0--0--0--0--0--0-0-0-----0---0------0-----|
B|-1--1--1--3--3--3---1--1-1>3-0-3-3------0----|
G|-0---0--0-2---2--2--0---0------2--2-2>4------|
D|-2------------------2------------------------|
A|-3------------------3------------------------|
E|-0------------------0------------------------|


e|-0--------(12)----|
B|-3--------(12)----|
G|-4---OR---(12)----|
D|-0--------(12)----|
A|----------(12)----|
E|----------(12)----|

Outro: x2

e|--0--0--0--0--0----0------|
B|-13-15-13-15-12---13h-----|
G|-12-12-12-12--x----x------|
D|-14-14-14-14-14---14------|
A|--------------------------|
E|--------------------------|

Outro: x1
e|--0--0--0--0-15-15-15-----|
B|-13-15-13-15-13-13-13-----|
G|-12-12-12-12-12-12-12-----|
D|-14-14-14-14-14-12-12-----|
A|--------------------------|
E|--------------------------|


e|-2-----0-0------------|
B|-3-----5>7------------|
G|-4-----7>9---FEEDBACK-|
D|-0-----7>9------------|
A|----------------------|
E|----------------------|
Tap to rate this tab
 
# A B C D E F G H I J K L M N O P Q R S T U V W X Y Z