Song name
# A B C D E F G H I J K L M N O P Q R S T U V W X Y Z

Rem - Little America tab

------------------------------------------------------------------------
		Little America - REM
------------------------------------------------------------------------
Tabbed by: Barnaby Wilde
Email:

Intro/ Verse:
e|--0-0-0-0-0-0-0-0--0-0-0-0----------------|
B|--7-7-8-7-5-5-5-7h-7-7-7-5----------------|
G|--7-7-7-7-7-7-7-7--7-7-7-7-7-5>7-7-7-9-7--|
D|--0-0-0-0-0-0-0-0--0-0-0---0-0-0-0-0-0-0--|
A|------------------------------------------|
E|------------------------------------------|

e|--0-0-0-0-0-0-0-0--0-0-0-0----------------10--|
B|--7-7-8-7-5-5-5-7h-7-7-7-5---------------8--8-|
G|--7-7-7-7-7-7-7-7--7-7-7-7-7-5>7-7-7-9-7------|
D|--0-0-0-0-0-0-0-0--0-0-0---0-0-0-0-0-0-0------|
A|----------------------------------------------|
E|----------------------------------------------|

Chorus:
e|--0---0---0---0->-0------------------|
B|--0---0---0---0->-0------------------|
G|--4---4---4---4->-9------------------|
D|--5---4---5---4->-9------------------|
A|--5---2---5---2->-7------------------|
E|--3---0---3---0->-0------------------|

Bridge to Verse:
e|----------------------------------------------|
B|----------------------------------------------|
G|--7-9h-9-9-7-4-7-9-7-7-7-7-9h-9-9-7-12-9-7----|
D|--0-0--0-0-0-0-0-0-0-0-0-0-0--0-0-0--0-0-0----|
A|----------------------------------------------|
E|----------------------------------------------|

End on:
e|-0-------|
B|-7-------|
G|-7-------|
D|-0-------|
A|---------|
E|---------|
Tap to rate this tab
 
# A B C D E F G H I J K L M N O P Q R S T U V W X Y Z