Song name
# A B C D E F G H I J K L M N O P Q R S T U V W X Y Z

Rem - Maps And Legends tab

------------------------------------------------------------------------
		Maps and Legends - REM
------------------------------------------------------------------------
Tabbed by: Barnaby Wilde
Email:

e|-----------|
B|-----------|
G|-----------|
D|----0------|
A|-0-2-------|
E|-----------|

Intro/ Chorus
e|-0---0---0------------|
B|-0---3---0------------|
G|-0---2---0---4-2-0----|
D|-2---0---2------------|
A|-2-------2------------|
E|-0-------0------------|

Verse:
e|---0---0---0---0---0--0---2---0----|
B|---------------------------0-2-0---|
G|--7-0-0-0-7-0-0-0-7-0-0--4---2-----|
D|-7---2---7---2---7---2--4----2-----|
A|-----------------------------------|
E|-----------------------------------|

Bridge to Chorus:
e|-----------0----0--0-0------0---|
B|-2-2-2-2-3h-2-3h---3-3-2-3h-0---|
G|-2-2-2-------------2-2------0---|
D|-2-2-2-------------2-2----------|
A|--------------------------------|
E|--------------------------------|

Middle Bridge:
D-Dm-F-C-D-Dm-F-D-Dm-F-C
e|---2----1---1---0---2----1---1---1--|
B|----3----3---1--1----3----3---1--1--|
G|-2---2-2--2---0-0--2--2-2--2---2-2--|
D|-0-----0--------2--0----0--------3--|
A|----------------3----------------3--|
E|----------------0----------------1--|

e|---2----1---1-x-x-0---|
B|----3----3--1-x-x-1---|
G|-2---2-2--2-2-2-0-0---|
D|-0-----0----3-3-0-2---|
A|------------3-3-0-3---|
E|------------1-0-0-0---|

End on Em.
Tap to rate this tab
 
# A B C D E F G H I J K L M N O P Q R S T U V W X Y Z