Rem - Driver 8 tab

------------------------------------------------------------------------
		DRIVER 8 - REM
------------------------------------------------------------------------
Tabbed by: Barnaby Wilde
Email:

Intro/ Bridge to last Verse
e|---------------------------------|
B|---------------------------------|
G|----------------------0--0-0-0-0-|
D|-2-------------4>5>9-------------|
A|-2------2-0-2-3-----10-10-9-7-0--|
E|-0-0-2-3-------------------------|

Verse
e|-0---0---3---3----|
B|-0---1---3---3----|
G|-0---2---0---0----|
D|-2---2---0---0----|
A|-2---0---2---0----|
E|-0---0---3---2----|

Chorus
e|-0-0--x-0--0-------|
B|-7-7--3--3---------|
G|-7-7--0---0--------|
D|-0-0--2------------|
A|------3------------|
E|------0------------|

Chorus/ Outro
e|--------------------------|
B|--------------------------|
G|--------------------------|
D|---0---0---0---0----------|
A|--2-2-2-2-2-2-2-2---------|
E|-0---2---3---2---0--------|

Middle Bridge
e|-0---0----0---0---0-------0-------3---2-2-3-3-2-----|
B|-1---1----1---1---1-------1-------3---3-3-3-3-3-----|
G|-2---2----2---0---0-----0-0-----0-0---2-2-2-2-2-----|
D|-2-0-2h-0-2h--0---2-0-2h--2-0-2h--0---0-0-0-0-0-----|
A|-0---0----0---0---3-------3-------2-----------------|
E|-0---0----0---0---0-------0-------3-----------------|

End on Em

Tap to rate this tab
 
# A B C D E F G H I J K L M N O P Q R S T U V W X Y Z