Song name
# A B C D E F G H I J K L M N O P Q R S T U V W X Y Z

Rem - Life And How To Live It tab

------------------------------------------------------------------------
		LIFE AND HOW TO LIVE IT - REM
------------------------------------------------------------------------
Tabbed by: Barnaby Wilde
Email:

Easier Intro:
e|-0-0--2--0--0--0---2--3--5--5--5>7-0---|
B|-1--1--1--1--1------3--3--3--3-----1---|
G|-0---0--0--0--0------2--2--2--2----0---|
D|-2---------------------------------2---|
A|-3--------------3>5----------------3---|
E|-0---------------------------------0---|

Intro: (Buck version)
e|-3----------------3>5-------5--5--5--5>7-3----|
B|-5-5--7--5--5--5--5>7-7--8---------------5----|
G|-5--5--5--5--5--5-5>7--7--7--7--7--7-----5----|
D|-3----------------3>5--------------------3----|
A|-3---3--3--3--3---3>5---5--5--5--5--5----3----|
E|-3----------------3>5--------------------3----|

Verse Riff:
e|-3-3-3-3-3-3-3-3-3-3-3-3>5-5-5-5-5-5-5-5-5<3-----|
B|-7-7-7-5-5-3-5-5-3-5-5-3>5-7-7-7-5-5-5-5-5<3-----|
G|-5-5-5-5-5-5-5-5-5-5-5-5>7-7-7-7-7-7-7-7-7<5-----|
D|-3-3-3-3-3-3-3-3-3-3-3-3>5-5-5-5-5-7-7-7-7<3-----|
A|-3-3-3-3-3-3-3-3-3-3-3-3>5-5-5-5-5-5-5-5-5<3-----|
E|-3-3-3-3-3-3-3-3-3-3-3-3>5-5-5-5-5-5-5-5-5<3-----|

Chorus: x2
e|-3---0---3---0---5-------------|
B|-3---3---3---3---7-------------|
G|-0---0---0---0---7-------------|
D|-0---0---0---0---5-------------|
A|-2---3---2---3---5-------------|
E|-3---0---3---0---5-------------|

Post Chorus Bridge and End: x2
e|--8----8----8-3---5-------|
B|-10---11---10-5---7-------|
G|-10---10---10-5---7-------|
D|-10---10---10-5---7-------|
A|--8----8----8-3---5-------|
E|--8----8----8-3---5-------|

End on D
Tap to rate this tab
 
# A B C D E F G H I J K L M N O P Q R S T U V W X Y Z