Rem - Cant Get There From Here tab

------------------------------------------------------------------------
		CANT GET THERE FROM HERE - REM
------------------------------------------------------------------------
Tabbed by: Barnaby Wilde
Email:

Intro:
e|----------77777--------------|
B|----------77777-77-7-99-9----|
G|----------77777-77-7-99-9----|
D|----------------77-7-99-9----|
A|-2-0-------------------------|
E|----3-0----------------------|

Verse:
e|-----------7-------------7---7------|
B|-77-7>99-9-7---77-7>99-9-7---7------|
G|-77-7>99-9-8---77-7>99-9-8---9------|
D|-77-7>99-9-9---77-7>99-9-9---9------|
A|-----------7-------------7---7------|
E|-----------7-------------7---7------|


e|-------------------0-0--0-0---0-0----------|
B|--------------------0-0--0-0---0-0---------|
G|-9---10---8---5---4----4-----3----3-3------|
D|-9---11---9---6---5----5-----4----4-4------|
A|-7---11---9---6---5----5-----4----4-4-2-0--|
E|------9---7---4---3----3-----2----2-2----3-|

Chorus: x3
e|-0---0---2-------|
B|-0---2---2-------|
G|-1---2---3-------|
D|-2---2---4-------|
A|-2---0---4-2-0---|
E|-0---0---2----3--|

e|-0---0---2---2----0-0--0-0--|
B|-0---2---2---4-----0-0--0-0-|
G|-1---2---3---4---8----8-----|
D|-2---2---4---4---9----9-----|
A|-2---0---4---2---9----9-----|
E|-0---0---2---2---7----7-----|


Middle Bridge:
e|-0---0>0---0>0<0---0----------------|
B|-0---0>0---0>0<0---0----------------|
G|-4---6>7---7>9<6---8----------------|
D|-4---6>7---7>9<7---9----------------|
A|-2---4>5---5>7<7---9----------------|
E|-0---0>0---0>0<5---7----------------|

End:
e|-0-0-0-0----------------------|
B|-0-0-0-3----------------------|
G|-1-1-1-1----------------------|
D|-2-2-0-0----------------------|
A|-2-2-2-2----------------------|
E|-0-0-0-0----------------------|
Tap to rate this tab
 
# A B C D E F G H I J K L M N O P Q R S T U V W X Y Z