Song name
# A B C D E F G H I J K L M N O P Q R S T U V W X Y Z

Rem - Wendell Gee tab

------------------------------------------------------------------------
		WENDELL GEE - REM
------------------------------------------------------------------------
Tabbed by: Barnaby Wilde
Email:

Verse:
e|-0---1---3---1---0---3--------|
B|-1---3---3---3---3---3--------|
G|-0---2---0---2---0---0--------|
D|-2---0---0---0---2---0--------|
A|-3-------2-------2---2--------|
E|-0-------3-------0---3--------|

Chorus:
e|-1---0---0---1---0---3----------|
B|-1---1---0---1---1---3----------|
G|-2---0---0---2---0---0----------|
D|-3---2---2---3---2---0----------|
A|-3---3---2---3---3---2----------|
E|-1---0---0---1---0---3----------|

Banjo Tab:
Verse
d|-5---5---5---5---5---5----|
B|-5---3---3---3---3---3----|
G|-5---2---4---0---0---0----|
D|-5---0---5---3---2---0----|
G|--------------------------|

Chorus
d|-3---5---5------|
B|-1---5---3------|
G|-2---5---4------|
D|-3---5---5------|
G|----------------|
Tap to rate this tab
 
# A B C D E F G H I J K L M N O P Q R S T U V W X Y Z