Song name
# A B C D E F G H I J K L M N O P Q R S T U V W X Y Z

Rem - Fall On Me tab

------------------------------------------------------------------------
		Fall On Me - REM
------------------------------------------------------------------------
Tabbed by: Barnaby Wilde
Email:

Intro
Guitar 1
e|-----3-5-3------3-5-3-----------|
B|--------------------------------|
G|-4-5h-5---4-4-5h-5---4-4-5h-5---|
D|--------------------------------|
A|--------------------------------|
E|--------------------------------|
Guitar 2
e|---------------0----------------|
B|---------------1-3-1-0-1--------|
G|---------------0------0---------|
D|---------------2--------0-2h----|
A|---------------3----------------|
E|---------------0----------------|
Verse
Dm-Am
e|--1--1--0-0--0--0------|
B|---3--3----1--1--------|
G|----2--2----2--2-------|
D|-0-------2-------0-----|
A|-----------------------|
E|-----------------------|

Bridge to Chorus
F-G-C-Dm-F-C-G
e|--1----3-----0---1---1-1---0-0---3----|
B|---1----3-----1---3--1--1--1--1--3----|
G|----2>4--4-0---0---2-2---2-0---0-0----|
D|-3----------2---0----3-----2-----0----|
A|---------------------3-----3-----2----|
E|---------------------1-----2-----3----|

Chorus
Guitar 1 (Acoustic)
e|------0-0-1-1-1-1-3-3----|
B|------1-1-3-3-1-1-3-3----|
G|------0-0-2-2-2-2-4-4----|
D|------2-2-0-0-3-3-5-5----|
A|------3-3-----3-3-5-5----|
E|------0-0-----1-1-3-3----|

Guitar 2
e|-----------------------------------------------------------|
B|-----------------------------------------------------------|
G|-----------------------------------------------------------|
D|-------------3-3-5-5-3-0-------3-3-5-5-3-0-------3-3-5-5---|
A|--0-2-3-3-5-5-----------3-3-5-5-----------3-3-5-5----------|
E|-3---------------------------------------------------------|

End of Chorus
e|-1-1--1--0-0--0--0-------|
B|-1--1--1--1-1--1---------|
G|-2---2--2-2--2--2--------|
D|-3--------3--------------|
A|-3-----------------------|
E|-1-----------------------|

Guitar 2
e|--------------------------|
B|--------------------------|
G|------------0-2p-0--------|
D|-3-3-3-2-2-2--------------|
A|--------------------------|
E|--------------------------|

Middle Bridge
e|-0-0---1--1---0-0---0--0---0-0---1--1-----1-------3---|
B|-1--1--1---1--1--1--0---0--1--1--1---1----3-------3---|
G|-2---2-2----2-2---2-0----0-2---2-2-2------2-------0---|
D|-2-----3-3----2-----2-2----2-----3----3-2-0---2-3-0---|
A|-0-----3------0-----2------0-----3----------------2---|
E|-------1------------0------------1----------------3---|

End of Last Chorus Transition
e|-1--1-1-0-1h-0-0--------|
B|-1---1--------3-3-0-----|
G|-2-2--------------------|
D|-3----------------------|
A|-3----------------------|
E|-1----------------------|
Tap to rate this tab
 
# A B C D E F G H I J K L M N O P Q R S T U V W X Y Z