Song name
# A B C D E F G H I J K L M N O P Q R S T U V W X Y Z

Rem - Discoverer tab

------------------------------------------------------------------------
		DISCOVERER - REM
------------------------------------------------------------------------
Tabbed by: Barnaby Wilde
Email:

Verse/Intro/Bridge
Guitar 1:
e|-2---2---7---2-------|
B|-0---0---0---0-------|
G|-4---4---9---4-------|
D|-4---4---9---4-------|
A|---------------------|
E|---------------------|

Guitar 2:
e|-4-5-7-9-10h-9-10h-9-9-10h-9-5-4-5h-4-2---|
B|------------------------------------------|
G|------------------------------------------|
D|------------------------------------------|
A|------------------------------------------|
E|------------------------------------------|

Chorus:
e|---------0--0-0------3---5---9--|
B|---------0-0-0-0-----3---7--11--|
G|-3---1---8-----------4---7--11--|
D|-4---2---9-------x3--5---7--11--|
A|-4---2---9-----------5---5---9--|
E|-2---0---7-----------3---5---9--|
Tap to rate this tab
 
# A B C D E F G H I J K L M N O P Q R S T U V W X Y Z