Song name
# A B C D E F G H I J K L M N O P Q R S T U V W X Y Z

Rem - Cuyahoga tab

------------------------------------------------------------------------
		Cuyahoga - REM
------------------------------------------------------------------------
Tabbed by: Barnaby Wilde
Email:


Bass Intro and Break
e|---------------------------------|
B|---------------------------------|
G|--2-2---7-7-7---4-4---7-7-7-7----|
D|-0-0-2-5-5---5<2-2-2>5---5-------|
A|---------------------------------|
E|---------------------------------|

Verse
e|-----------------3------------------3--|
B|----------------3------------------3---|
G|-4-4-4-2-2-------------------2-2-0-----|
D|----------4-2-0-----2-2-2-4-4---4------|
A|---------------------------------------|
E|---------------3------------------3----|

Bridge to Chorus
e|-0-0---0-0----2-2-0--|
B|-0-0---0-0----3------|
G|-0-0---0-0----4------|
D|-2-0---2-0----4------|
A|-2-2---2-2----2------|
E|-0-2---0-0----2------|

e|-0-0---0-0----2-2--|
B|-0-0---0-0----2--2-|
G|-0-0---0-0----2----|
D|-2-0---2-0---------|
A|-2-2---2-2---------|
E|-0-2---0-0---------|

e|-0-0---0-0----2-2-0--|
B|-0-0---0-0----3------|
G|-0-0---0-0----4------|
D|-2-0---2-0----4------|
A|-2-2---2-2----2------|
E|-0-2---0-0----2------|


e|-0-0---0-0----2-2---|
B|-0-0---0-0----3--3--|
G|-0-0---0-0----2-----|
D|-2-0---2-0----0-----|
A|-2-2---2-2----------|
E|-0-2---0-0----------|

Chorus
e|-2-0-3-2-2---0---0-0---|
B|-3-0-3-3-3---2---0-2---|
G|-2-0-0-4-2---2---0-2---|
D|-0-2-0-4-0---2---0-2---|
A|---2-2-2-----0---0-0---|
E|---0-3-2-----0---0-0---|

e|-2-0-3-2-2-0-3----|
B|-3-0-3-3-3-0-3----|
G|-2-0-0-4-2-0-0----|
D|-0-2-0-4-0-2-0----|
A|---2-2-2---2-2----|
E|---0-3-2---0-3----|

Middle Bridge
e|-2---0---3---3---2---0---3---3---2--|
B|-3---2---3---3---3---2---3---3---3--|
G|-4---2---0---0---4---2---0---0---2--|
D|-4---2---0---0---4---2---0---0---0--|
A|-2---0---2---2---2---0---2---2------|
E|-2---0---3---3---2---0---3---3------|
End on D.
Tap to rate this tab
 
# A B C D E F G H I J K L M N O P Q R S T U V W X Y Z