Rem - Superman tab

------------------------------------------------------------------------
		SUPERMAN - REM
------------------------------------------------------------------------
Tabbed by: Barnaby Wilde
Email:

Intro:
e|-0---0---0---0---0---0---0---0----|
B|-0---3---0---3---0---3---0---0----|
G|-1---1---1---1---1---1---1---1----|
D|-2---2---2---2---2---2---2---2----|
A|-2---2---2---2---2---2---2---2----|
E|-0---0---0---0---0---0---0---0----|

Verse/Chorus:
e|-0---0---0---0-------------|
B|-0---2---2---0-------------|
G|-1---2---2---1---9-7-------|
D|-2---2---2---2------9-7-5--|
A|-2---0---0---2----CHORUS---|
E|-0---0---0---0-----ONLY----|

Middle Bridge:
e|-2-2-2-0-0-0----------------|
B|-3-3-3-2-2-2-5-5---5-5------|
G|-2-2-2-2-2-2----0-1---0-1---|
D|-0-0-0-2-2-2----------------|
A|-------0-0-0-----------x3---|
E|-------0-0-0----------------|

e|-2-2-2-0-0-0-|
B|-3-3-3-2-2-2-|
G|-2-2-2-2-2-2-|
D|-0-0-0-2-2-2-|
A|-------0-0-0-|
E|-------0-0-0-|

e|--0--0--0---0--0--0-0--0--0----0--0--0-|
B|---0--0------0--0----0--0-------0--0---|
G|-1--1--1---6-----------------1---1--1--|
D|-2---------7--7--7----7--7---2---------|
A|---------------------------------------|
E|---------------------------------------|

End:
e|-2-2-2-0-0-0---0-|
B|-3-3-3-2-2-2---0-|
G|-2-2-2-2-2-2---9-|
D|-0-0-0-2-2-2---9-|
A|-------0-0-0---7-|
E|-------0-0-0---0-|
Tap to rate this tab
 
# A B C D E F G H I J K L M N O P Q R S T U V W X Y Z