Song name
# A B C D E F G H I J K L M N O P Q R S T U V W X Y Z

Rem - Swan Swan H tab

------------------------------------------------------------------------
		SWAN SWAN H - REM
------------------------------------------------------------------------
Tabbed by: Barnaby Wilde
Email:

Intro
e|--0---------0-----------|
B|--1---------1-----------|
G|--2---------2-----------|
D|--2---0-2h--2---0-2h----|
A|-0--------0-------------|
E|------------------------|

Verse
Guitar 1
e|--0---------1-----------|
B|--1---------3-----------|
G|--2---------2---0-2h----|
D|--2---0-2h--------------|
A|-0----------------------|
E|------------------------|

Guitar 2
e|--------------------------|
B|--------------------------|
G|--------------------------|
D|------0-2-0-------0-2-0---|
A|-0-2-3-----0-0-2-3--------|
E|------------3-------------|

Chorus
Guitar 1
e|-0---0---1---1-------------------|
B|-0---0---1---1-------------------|
G|-0---0---2---2-------------------|
D|-2---2---3---3-------------------|
A|-2---2---3---3-------------------|
E|-0---0---1---1-------------------|

Guitar 2
e|----------------------|
B|----------------------|
G|----------------------|
D|----------------------|
A|-2-0-2-3-0-2-0-2-3----|
E|--3-------1-3------x2-|

Middle Bridge
Guitar 1
e|-3---3---2---2---0---0---2---2--|
B|-3---3---3---3---1---1---3---3--|
G|-0---0---4---4---0---0---2---2--|
D|-0---0---4---4---2---2---0---0--|
A|-2---2---2---2---3---3----------|
E|-3---3---2---2---0---0----------|

Guitar 2
e|--------------------------------------|
B|--------------------------------------|
G|--------------------------------------|
D|-5-555-4-4---4-----------------4-5----|
A|--------7-7-5-7-777-5-7-5-555-7----x2-|
E|--------------------------------------|
Tap to rate this tab
 
# A B C D E F G H I J K L M N O P Q R S T U V W X Y Z