Rem - Just A Touch tab

------------------------------------------------------------------------
		Just A Touch - REM
------------------------------------------------------------------------
Tabbed by: Barnaby Wilde
Email:

Intro:
e|-0-0-0-0-3---------|
B|-2-2-2-3-3---------|
G|-2-2-2-2-0---------|
D|-2-2-2-2-0---x4----|
A|-0-0-0-0-2---------|
E|-0-0-0-0-3---------|

Verse:
Hammer on the chords and let ring!
e|-0---3---0---3---0---3---0---3---|
B|-2---3---2---3---2---3---2---3---|
G|-2---0---2---0---2---0---2---0---|
D|-2---0---2---0---2---0---2---0---|
A|-0---2---0---2---0---2---0---2---|
E|-0---3---0---3---0---3---0---3---|

e|-0-0-0-0-3---------|
B|-2-2-2-3-3---------|
G|-2-2-2-2-0---------|
D|-2-2-2-2-0---x4----|
A|-0-0-0-0-2---------|
E|-0-0-0-0-3---------|

Chorus:
e|-4---5--------3----|
B|-5---5--------3----|
G|-6---6--------4----|
D|-6---7---x3---5----|
A|-4---7--------5----|
E|-4---5--------3----|

Bridge:
e|-0---2--------3----|
B|-0---3--------3----|
G|-1---2--------0----|
D|-2---0---x3---0----|
A|-2------------2----|
E|-0------------3----|
End on A.
Tap to rate this tab
 
# A B C D E F G H I J K L M N O P Q R S T U V W X Y Z