Rem - What If We Give It Away tab

------------------------------------------------------------------------
		What If We Give It Away? - REM
------------------------------------------------------------------------
Tabbed by: Barnaby Wilde
Email:

Verse:
Strum G Chord up at beginning:
e|-------------------0-0-0-0-0---|
B|-------------------2-2-3-2-0---|
G|---------------2-2-2-2-2-2-0---|
D|-0-0-0-0-0-0-0-2-2-2-2-2-2-0---|
A|-x-x-x-x-2-2-2-0-0-0-0-0-0-0---|
E|-3-3-3-3-0-0-0-0-0-------------|

Chorus:
e|-0---0---2---0---0---2-0-2-3---0-0-0-0-0-0--------------------|
B|-0---3---3---0---3---3-3-3-3---3-2-0-0-0-0-3333333333333------|
G|-0---2---2---0---2---2-2-2-0---0-0-0-2-4-0-2222222222222------|
D|-2---0---0---2---0---0-0-0-0---------------0000000000000------|
A|-2-----------2-------------2----------------------------4-2-0-|
E|-0-----------0-------------3----------------------------------|

Middle Bridge:
e|-0---2---0---3---0---2---0-------------|
B|-2---3---1---3---2---3---1-------------|
G|-2---2---0---0---2---2---0-------------|
D|-2---0---2---0---2---0---2---0-0-0-0-0-|
A|-0-------3---2---2-------3---2-3-2-3-0-|
E|-0-------0---3---0-------0---0-0-0-0-0-|

End:
e|-0-----0----------------------|
B|-0-----0----------------------|
G|-0-----2----------------------|
D|-2-x4--0----------------------|
A|-2-----0----------------------|
E|-0-----0----------------------|
Tap to rate this tab
 
# A B C D E F G H I J K L M N O P Q R S T U V W X Y Z