Rem - Crazy tab

------------------------------------------------------------------------
		CRAZY - REM
------------------------------------------------------------------------
Tabbed by: Barnaby Wilde
Email:

Intro:
e|--3-3-3--5-----|
B|---------------|
G|---------------|
D|--------2------|
A|-2-3-2-0----x4-|
E|---------------|

Verse:
Guitar 1
e|--3-3-3--5-----|
B|---------------|
G|---------------|
D|--------2------|
A|-2-3-2-0----x4-|
E|---------------|
Guitar 2
e|------------------|
B|------------------|
G|---0--0-0--2------|
D|--0--0----2-2-----|
A|-2--3--2-0--------|
E|------------------|

Chorus:
Guitar 1
e|-0---0---0---0---0---0---2------------|
B|-1---1---1---1---1---1---3------------|
G|-2---2---0---0---2---2---2------------|
D|-3---3---2---2---3---3---0------------|
A|-0---0---3---3---0---0----------------|
E|-0---0---0---0---0---0----------------|
Guitar 2:
e|-0000000000000000000000000000000--|
B|-1111111111111111111111113333333--|
G|----------------------------------|
D|----------------------------------|
A|----------------------------------|
E|----------------------------------|
Guitar 2 (Variation Chorus)
e|--0--0--0-0--0--0-0--0--0-0--0--0-|
B|---1--1----1--1----1--1----3--3---|
G|-2--2--2-0--0--0-2--2--2-2--2--2--|

Bridge:
e|-------------------------12<2--|
B|-------------------------12<2--|
G|-------------------------------|
D|------------2-1-2-1-2>5-5------|
A|-0-2-3-2-0-0-------------------|
E|-------------------------------|

Bridge Outro (Chorus Chords):
e|----------------------------|
B|------------550-------------|
G|-----5555-7h770-----7777777-|
D|-5>7-7777-7-----x3--7777777-|
A|----------------------------|
E|----------------------------|

End on:
e|-0----|
B|-0----|
G|-0----|
D|-2----|
A|-0----|
E|-0----|
Tap to rate this tab
 
# A B C D E F G H I J K L M N O P Q R S T U V W X Y Z