Rem - Walk It Back tab

------------------------------------------------------------------------
		WALK IT BACK - REM
------------------------------------------------------------------------
Tabbed by: Barnaby Wilde
Email:

Mostly Piano and Bass, but this is background acoustic

Intro/ Chorus
e|-2---0-0---0------2---0-2--|
B|-3---2-0---0------3---3-3--|
G|-2---2-0---0------2---2-2--|
D|-0---0-0---2-x3---0---0-0--|
A|-----------2---------------|
E|-----------0---------------|

Hit these chords with the electric too

Verse
e|-2---0---3---2---0---|
B|-3---2---3---3---2---|
G|-2---2---0---4---2---|
D|-0---2---0---4---2---|
A|-----0---2---2---0---|
E|-----0---3---2---0---|
Tap to rate this tab
 
# A B C D E F G H I J K L M N O P Q R S T U V W X Y Z