Rem - Every Day Is Yours To Win tab

------------------------------------------------------------------------
		EVERY DAY IS YOURS TO WIN - REM
------------------------------------------------------------------------
Tabbed by: Barnaby Wilde
Email:

Verse/Chorus
e|---------------------------------|
B|--8-----10---------10------10----|
G|---9-------------11--11--11--11--|
D|-9--9>11--9-11-12------11--------|
A|---------------------------------|
E|---------------------------------|

Middle Bridge
e|------------------------|
B|------------------------|
G|------------------------|
D|--5-3-2-3-2-5-3-2-3-4---|
A|-3---------3------------|
E|------------------x2----|

End
e|-------------------------------------|
B|--8-----10---------------------------|
G|---9------------------11-------11----|
D|-9--9>11--9-11-12-9-12--12-9-12--12--|
A|-------------------------------------|
E|-------------------------------------|
Tap to rate this tab
 
# A B C D E F G H I J K L M N O P Q R S T U V W X Y Z