Song name
# A B C D E F G H I J K L M N O P Q R S T U V W X Y Z

Rem - White Tornado tab

------------------------------------------------------------------------
		WHITE TORNADO - REM
------------------------------------------------------------------------
Tabbed by: Barnaby Wilde
Email:

Part 1
e|-------------------------------------|
B|-------------------------------------|
G|-5>7-5-5-7-5-5-7>9-7-7-9h-9-7-9-7-7--|
D|------7-----7--------------------9---|
A|-------------------------------------|
E|--------------------------------x2---|

Part 2
e|-----8--8--8-10b-10-10-8---------------------------|
B|-8-10-10-10-------------10-8-10b-8-8-10-8-10b-8----|
G|---------------------------------------------------|
D|---------------------------------------------------|
A|---------------------------------------------------|
E|---------------------------------------------x3----|

Part 3
e|-2---3---2---3---2---3---0---0-0-0-0---|
B|-3---4---3---4---3---4---2---2-2-0-2---|
G|-2---3---2---3---2---3---2---2-2-0-2---|
D|-0---0---0---0---0---0---2---2-2-0-2---|
A|-------------------------0---0-0-0-0---|
E|-------------------------0---0-0-0-0---|

Part 1 variation
e|--------------------------------|
B|--------------------887755------|
G|-5>7-5-5-7-5-5-7>9-7------7-5---|
D|------7-----7-------------------|
A|--------------------------------|
E|--------------------------------|
Tap to rate this tab
 
# A B C D E F G H I J K L M N O P Q R S T U V W X Y Z