Rem - Burning Hell tab

------------------------------------------------------------------------
		BURNING HELL - REM
------------------------------------------------------------------------
Tabbed by: Barnaby Wilde
Email:

Intro/Verse
e|---------------------------------------------|
B|---------------------------------------------|
G|---------------------------------------------|
D|-2-2-2-2-2-2-2-2-2-2-2-2-2-2-2-2-2-2-2-2-2-2-|
A|-2-2-2-2-0-2-2-2-2-0-2-2-2-2-0-0-2-3-2-0-2-0-|
E|-0-0-3-0-0-0-0-3-0-0-0-0-3-0-0-------------0-|

Chorus
Guitar 1
e|---------------------------------|
B|---------------------------------|
G|---------------------------------|
D|-5-------4-------x---------------|
A|-3-------2-------7---------------|
E|-0-------0-------5---------------|
Guitar 2
e|--------------------------------------|
B|-555555554444444422-5-7-5----5-7-5----|
G|-555555554444444422-5----7-5-5----7-5-|
D|--------------------------------------|
A|--------------------------------------|
E|--------------------------------------|

Lead
e|-----------------------------------------------------------------|
B|--------------55555-55575-5---10-12-12--10-12-12--10-12-12-10-12-|
G|-575757575757-55797-57555-7>11--------11--------11---------------|
D|-----------------------------------------------------------------|
A|-----------------------------------------------------------------|
E|-----------------------------------------------------------------|

e|--------------------------------------------------12--------|
B|-12>13-13-13--13-13-11-13--13-13-13>15-15-15-13-15--15-13---|
G|------------12-----------12-----12-------------14--------14-|
D|------------------------------------------------------------|
A|------------------------------------------------------------|
E|------------------------------------------------------------|

Last Verse Fill Riff
e|-------------------------|
B|-------------------------|
G|-02020202020202020202-2b-|
D|-------------------------|
A|-------------------------|
E|-------------------------|

End (Chord Forms)
e|-------15-----------|
B|-15-13-15-15b---15--|
G|-14-14-14-------14--|
D|--------------------|
A|--------------------|
E|--------------------|
Tap to rate this tab
 
# A B C D E F G H I J K L M N O P Q R S T U V W X Y Z