Rem - Burning Down tab

------------------------------------------------------------------------
		BURNING DOWN - REM
------------------------------------------------------------------------
Tabbed by: Barnaby Wilde
Email:

Intro/Chorus
e|-0---0---0---0------0-----0--0-0-----0-----|
B|-2---0---2---0-------0-----0----0----------|
G|-2---2---2---2---4>6--6-----0-6--6------0--|
D|-2---2---2---2---5>7---7>9--9-7---7>9-9b---|
A|-0---0---0---0-----------------------------|
E|-0---0---0---0-----------------------------|

Verse
e|-0---2-0-2---0---2-0---|
B|-2---3-2-3---3---3-3---|
G|-2---2-2-4---4---4-4---|
D|-2---0-2-4---4---4-4---|
A|-0-----0-2---0---0-0---|
E|-0-----0-2---0---0-0---|

Bridge to Chorus
e|-0---2---2-4-2---0---2---0----|
B|-0---2---2-4-2---0---2---0----|
G|-1---3---3-5-3---1---3---1----|
D|-2---4---4-6-4---2---4---2----|
A|-2---4---4-6-4---2---4---2----|
E|-0---2---2-4-2---0---2---0----|

Middle Bridge
e|-2---4---2---4---0---|
B|-3---5---3---5---0---|
G|-4---6---4---6---1---|
D|-4---6---4---6---2---|
A|-2---4---2---4---2---|
E|-2---4---2---4---0---|
Tap to rate this tab
 
# A B C D E F G H I J K L M N O P Q R S T U V W X Y Z