Rem - Toys In The Attic tab

------------------------------------------------------------------------
		TOYS IN THE ATTIC - REM
------------------------------------------------------------------------
Tabbed by: Barnaby Wilde
Email:


Chorus/Intro
e|-22---22---22---00---33---|
B|-33---33---33---11---33---|
G|-22---22---22---00---00---|
D|-00---00---00---22---00---|
A|----------------33---22---|
E|----------------00---33---|

Verse Part 1
e|-3---3-2-0---0-3-1---0-3-0--------------------------|
B|-3---3-3-1---1-3-1---1-3-2--------------------------|
G|-0---0-2-0---0-0-2---0-0-2--------------------------|
D|-0---0-0-2---2-0-3---2-0-2-2-0-2-0-2-0-2-0-2-0-2-0--|
A|-2---2---3---3-2-1---3-2-0------------2-----------2-|
E|-3---3---0---0-3-1---0-3-0--------------------------|

Verse Part 2 (x4)
4th Time Go to G in Verse Part 1
e|-2-------------------|
B|-3---8-7-5-----------|
G|-2--------7-5-----5--|
D|-0-----------7-9-7---|
A|---------------------|
E|---------------------|

Slide Up To Chorus
e|----------------------|
B|----------------------|
G|----------------------|
D|-2-0-2-0-2-0----------|
A|------------000222333-|
E|----------------------|

Lead
e|------------------------------------6-6-9-6-4-6h-4-|
B|-66-4-66-4-66-4-66-4--------------8----------------|
G|--------------------88-6-88-6-88-6-----------------|
D|---------------------------------------------------|
A|---------------------------------------------------|
E|---------------------------------------------------|

e|-6b-4-6b-4-6b-4-6-4---------------------|
B|-------------------6-4-6-4--------------|
G|--------------------------6-4-----------|
D|-----------------------------3-4-5-6-7--|
A|-----------------------------1-2-3-4-5--|
E|----------------------------------------|
Tap to rate this tab
 
# A B C D E F G H I J K L M N O P Q R S T U V W X Y Z