Song name
# A B C D E F G H I J K L M N O P Q R S T U V W X Y Z

Rem - Blue tab

------------------------------------------------------------------------
		BLUE - REM
------------------------------------------------------------------------
Tabbed by: Barnaby Wilde
Email:

Chord Progression
e|-0---2---0---------------|
B|-0---3---1---------------|
G|-0---2---0---------------|
D|-2---0---2---------------|
A|-2-------3---------------|
E|-0-------0---------------|

Lead
e|---------------------0-----2-3>7-|
B|----------------7-7-7-0-3>5------|
G|------0-----9-7------------------|
D|-2-2-4-4-4-2---9---4-------------|
A|---------------------------------|
E|---------------------------------|

Michael Vocal Starts
e|--12-10--12---10-12-10--------|
B|-5-----13---10--------12----5-|
G|-------------------------2>4--|
D|------------------------------|
A|------------------------------|
E|------------------------------|

Patti Vocal Starts
e|-----0-----0-----0-12-------------|
B|-5-3-5-5-3-5-5-0-5--12-3-3-3>5-10-|
G|-----4-----4-----0--------0---4---|
D|----------------------------------|
A|----------------------------------|
E|----------------------------------|
End Blue
e|------|
B|-12b--|
G|------|
D|------|
A|------|
E|------|

Discoverer Finale
e|-2---2---0---2-------|
B|-0---0---0---0-------|
G|-4---4---2---4-------|
D|-4---4---2---4-------|
A|---------------------|
E|---------------------|

Guitar 2:
e|-4-5-7-9-10h-9-10h-9-9-10h-9-5-4-5h-4-2---|
B|------------------------------------------|
G|------------------------------------------|
D|------------------------------------------|
A|------------------------------------------|
E|------------------------------------------|
Tap to rate this tab
 
# A B C D E F G H I J K L M N O P Q R S T U V W X Y Z