Song name
# A B C D E F G H I J K L M N O P Q R S T U V W X Y Z

Rem - Windout tab

------------------------------------------------------------------------
		WINDOUT - REM
------------------------------------------------------------------------
Tabbed by: Barnaby Wilde
Email:

Intro
e|-----------7---0---7---0-|
B|----(10)---9---7---9---7-|
G|-----------9---7---9---7-|
D|-(7)-------9---0---9---0-|
A|-----------7---0---7---0-|
E|-----------7---0---7---0-|

Verse
e|-7----7-0---|
B|-9---10-7---|
G|-9----9-7---|
D|-9----9-0---|
A|-7----7-0---|
E|-7----7-0---|

Chorus
e|-0---3---|
B|-2---3---|
G|-2---0---|
D|-2---0---|
A|-0---2---|
E|-0---3---|

Middle Bridge
e|-------------|
B|--7-8-7------|
G|-9------x8---|
D|-------------|
A|-------------|
E|-------------|
End on E.
Tap to rate this tab
 
# A B C D E F G H I J K L M N O P Q R S T U V W X Y Z