Song name
# A B C D E F G H I J K L M N O P Q R S T U V W X Y Z

Rem - Pale Blue Eyes tab

------------------------------------------------------------------------
		PALE BLUE EYES - REM
------------------------------------------------------------------------
Tabbed by: Barnaby Wilde
Email:

Intro and Picking Pattern
e|-1--1-----|
B|-1---1-1--|
G|-2-2--2---|
D|-3------3-|
A|----------|
E|----------|

Verse
e|-1---6---1---1---1---3---6---1---0---1-----------------|
B|-1---6---1---1---3---5---6---3---5---1---1-1-1-3h-1-1--|
G|-2---7---2---2---2---5---7---3---5---2-------------2---|
D|-3---8---3---3---0---5---8---3---5---3-----------------|
A|-------------------------------------------------------|
E|-------------------------------------------------------|

Chorus
e|-0--------1-1-|
B|-1--------3-1-|
G|-0-----0--3-2-|
D|-2-0-2h-2-3-3-|
A|-3------------|
E|-0------------|

Lead
e|-----8------------8---------6----------------------8----|
B|-3>10-10-11-10-8-8-10-10---6-6-6-8h-6-6-8-8-10-8-10-6---|
G|----------------10------3>7----------7------------------|
D|--------------------------------------------------------|
A|--------------------------------------------------------|
E|--------------------------------------------------------|

e|-----8------------1-----1----6--1------1----|
B|-8-10-10-8-10<-1-3-3---3----6----1----1-1---|
G|--------------2-----2>3--3>7--7---2-3h------|
D|-------------------------------3------------|
A|--------------------------------------------|
E|--------------------------------------------|

e|------------1---1--1------------|
B|-------------1-1-1--1-1-3h-1-1--|
G|---0---0---2--3---2--2------2---|
D|--3-3-2-2-3---------------------|
A|-1---3--------------------------|
E|--------------------------------|

End
e|-1---0---1--------1-|
B|-1---1---1--------1-|
G|-2---0---2-2-3-2--2-|
D|-3---2---3------3-3-|
A|-3---3---3--------3-|
E|-1---0---1--------1-|
Tap to rate this tab
 
# A B C D E F G H I J K L M N O P Q R S T U V W X Y Z