Rem - King Of The Road tab

------------------------------------------------------------------------
		KING OF THE ROAD - REM
------------------------------------------------------------------------
Tabbed by: Barnaby Wilde
Email:

Opening
e|---------------3---------------0---|
B|---------------3---------------1---|
G|---------------0---------------0---|
D|---------------0---------------2---|
A|---------------2---------------3---|
E|-0-1-1-2-2-3---3---0-1-1-2-2-3-0---|

e|--5-3--0---0---------0---|
B|-------1---1---------1---|
G|-5-3-0-0---0---------0---|
D|-------2---2-0-2-0-2-2---|
A|-------3---3---------3---|
E|-------0---0---------0---|

Verse
e|-0--------1---3-----------0-------------0---0--|
B|-1-1---1-------3-3-5h-3-3-1-------------1---1--|
G|-0---------------------4--0--0-0-2h-0-0-0---2--|
D|-2--0-2-2-----------------2-2-2------2--2---3--|
A|-3------3-----------------3-------------3---0--|
E|-0---------1>3------------0-------------0---0--|

e|-1-----------3----7-5--0----|
B|--1----------3---------1----|
G|---2-2>3-3>4-4---7-5-3-0----|
D|---3-3>4-4>5-----------2----|
A|---3-3>4-4>5-----------3----|
E|---1-1>2-2>3-----------0----|

Lead
e|-3-3---------1----1-----------------------------------|
B|-1-1-3b-1>----1-3h-1-3h-5-3<1-1-8b---------6-6---8-8--|
G|-------2-----------------5------7b--------5-5-5>7-7---|
D|----------------------------------7<5-5-7h------------|
A|------------------------------------------------------|
E|------------------------------------------------------|

e|-------------------------------------------|
B|-8b---------6-6---8-8-8-8-----------8------|
G|-7b--------7-5-5>7-7-7-7-7-10-9-7--7-7b-5<-|
D|---7<5-5-7h----------------------10--------|
A|-------------------------------------------|
E|-------------------------------------------|

Key Change
e|-4---2---4---4---4---2---2-3-4-------|
B|-6---2---4---6---6---2---2-3-4-------|
G|-6---3---5---6---6---3---3-4-5-------|
D|-6---4---6---6---6---4---4-5-6-------|
A|-4---4---6---4---4---4---4-5-6-------|
E|-4---2---4---4---4---2---2-3-4-------|

e|----4-4---2-2----2--4--4-4--------|
B|----6-6---2--2-4h----6b--6-7-6-4--|
G|----6-6---3-------3>-----6--------|
D|----6-6---4--------------6--------|
A|--4-4-4---4--------------6--------|
E|-6--4-4---2--------------4--------|

e|-4---2-3-4-------------------------------2---------|
B|-6---2-3-4---6b-4-6b-4-------------------4-3b-5----|
G|-6---3-4-5------------6-4-6b-4-----------4-----3-5-|
D|-6---4-5-6--------------------6-4--------4---------|
A|-4---4-5-6-----------------------6-4-6b--2---------|
E|-4---2-3-4-----------------------------2-2---------|
Tap to rate this tab
 
# A B C D E F G H I J K L M N O P Q R S T U V W X Y Z