Rem - Walters Theme tab

------------------------------------------------------------------------
		WALTER’S THEME - REM
------------------------------------------------------------------------
Tabbed by: Barnaby Wilde
Email:

Verse
e|--------------5-5-5>7-7----|
B|-----9--------0-0-0>0------|
G|------9-11-9--6-6-6>8--8---|
D|----9---------7-7-7>9---9--|
A|-6>7------x3---------------|
E|---------------------------|

Chorus
e|---------0-------0-0--|
B|-10-9-7-0-0-----0-0---|
G|-------9---8>9-9------|
D|----------------------|
A|----------------------|
E|----------------------|
Tap to rate this tab
 
# A B C D E F G H I J K L M N O P Q R S T U V W X Y Z