Rem - Welcome To The Occupation tab

------------------------------------------------------------------------
		WELCOME TO THE OCCUPATION - REM
------------------------------------------------------------------------
Tabbed by: Barnaby Wilde
Email:


Intro
e|-0---0------------------------|
B|-0---3------------------------|
G|-0---2------------------------|
D|-2---0------------------------|
A|-0----------------------------|
E|-0----------------------------|

Verse
e|--------------0---|
B|---0---2---0---2--|
G|--0-0-0-0-0-0---0-|
D|-2---0---2---0----|
A|------------------|
E|------------------|

Chorus
e|--0-0-0-0-0-0-0-0-0-0-0-2-0-|
B|---0-2-2---0-2-2---0-2------|
G|-4-------4-------4----------|
D|----------------------------|
A|----------------------------|
E|----------------------------|

Middle Bridge
e|--0--0--0-0--0--0---0--0--0-0--0--0----3---2--|
B|---1--1----1--1------0--0----0--0------3---3--|
G|-2--2--2----2--2---4--4--4----4--4-----0---2--|
D|----------------------------------x2---0---0--|
A|---------------------------------------2------|
E|---------------------------------------3------|

End
e|-0---0---0---|
B|-3---3---0---|
G|-4---2---0---|
D|-0---0---2---|
A|---------2---|
E|---------0---|
Tap to rate this tab
 
# A B C D E F G H I J K L M N O P Q R S T U V W X Y Z