Song name
# A B C D E F G H I J K L M N O P Q R S T U V W X Y Z

Rem - Finest Worksong tab

------------------------------------------------------------------------
		FINEST WORKSONG - REM
------------------------------------------------------------------------
Tabbed by: Barnaby Wilde
Email:

Intro
Keep the open strings ringing, but mute the rest from time to time for 'scratch' sound.
e|-0---|
B|-0---|
G|-8---|
D|-9---|
A|-9---|
E|-7---|

Verse
e|-0-0-0--|
B|-0--0-0-|
G|-8------|
D|-9------|
A|-9------|
E|-7------|

Verse Slide
e|--------|
B|--------|
G|-11<9---|
D|--9<7---|
A|--------|
E|--------|

Chorus
e|-0---2---|
B|-0---2---|
G|-1---3---|
D|-2---4---|
A|-2---4---|
E|-0---2---|

Middle Bridge
e|-0---|
B|-0---|
G|-6---|
D|-7---|
A|-7---|
E|-5---|

End
A mix of harmonic and notes, harmonic in parenthesis
e|--0---(10)---10--------|
B|--0---(10)----x--------|
G|-(9)----9---(12)----0--|
D|-(9)----9-----0---(12)-|
A|-----------------------|
E|--------------x2-------|
Tap to rate this tab
 
# A B C D E F G H I J K L M N O P Q R S T U V W X Y Z