Song name
# A B C D E F G H I J K L M N O P Q R S T U V W X Y Z

Rem - King Of Birds tab

------------------------------------------------------------------------
		KING OF BIRDS - REM
------------------------------------------------------------------------
Tabbed by: Barnaby Wilde
Email:

Guitar
Verse
e|-0---0-0---|
B|-0---3-3---|
G|-7---0-2---|
D|-7---------|
A|-5---------|
E|-0---------|

Chorus
e|-3---3-3-3---2---2---0---|
B|-3---3-3-3---2---2---2---|
G|-4---4-5-4---3---3---2---|
D|-5---5-5-5---4---4---2---|
A|-5---5-3-5---4---4---0---|
E|-3---3-3-3---2---2---0---|

Middle Bridge
e|-7---7---7---7--|
B|-7---9---7---9--|
G|-8---9---8---9--|
D|-9---9---9---9--|
A|-9---7---9---7--|
E|-7---7---7---7--|

A note:  I do not play dulcimer.  I have never even strummed one.
Below is how I tune my guitar to mimic the dulcimer.
What is clear is that Buck uses the Mixolydian Tuning which is D-A-D.
Below, I tune my guitar to D-A-A-D, primarily because of the ease of keeping the D
string at it's normal tuning and then using the still correctly tuned E-A-D to play the 
power chords.
Also, I have put some of the open notes in, but the idea of the dulcimer is to strum the
board entirely with each note.

Dulcimer Intro:
d|-10---9---0-----0---5-7h>10-10-10-9-7---|
a|--0---0---0---4b----0-0---0--0--0-0-5---|
A|--0---0---0-------------------------0---|
D|--0---0---0-------------------------0---|

d|-7-0-------------------7-------|
a|-5-5-0-2p-0-4p-0-5-5-0-5-------|
A|-0-0-------------------0-------|
D|-0-0-------------------0-------|

d|-7-7-7-7-7-5-4-0--|
a|-5-5-5-5-5-0-0-0--|
A|-0-0-0------------|
D|-0-0-0------------|

"A thumbnail sketch ..."
d|-7-0-------------------7-------|
a|-5-5-0-4p-0-4p-0-5-5-0-5-------|
A|-0-0-------------------0-------|
D|-0-0-------------------0-------|

"A mean idea ..."
d|-7-0---------------|
a|-5-5---------------|
A|-0-0---------------|
D|-0-0---5b-4-0-2-0--|

"Old man ..."
d|-7-0---12-10-9-0---|
a|-5-5---------------|
A|-0-0---------------|
D|-0-0---------------|

"point to point ..."
d|-7-0--------------------|
a|-5-5---4-5p-0-4-0-5-5-4-|
A|-0-0--------------------|
D|-0-0--------------------|

"Standing on the shoulders ..."
d|-7-0---------------|
a|-5-5---5p-0-4-0-5-0|
A|-0-0---------------|
D|-0-0---------------|

"Leaves me cold ..."
d|-7-0----------------------|
a|-5-5-0-4p-0-4p-0-5-4b-0---|
A|-0-0----------------------|
D|-0-0----------------------|

That's the first verse. All other riffs are variations on these, so feel free to play around.
Bend and pull off on the 2nd and 4th fret.  Everything builds off
of the chord on the 5th and 7th fret, so as long as you return there you're golden.

End
At "Everybody hit the ground" the dulcimer focuses on the high d string.
d|-5-7h-7-12-10-9-7-----|
a|-0-0--5--0--0-0-0-----|
A|----------------------|
D|----------------------|

d|-5-7h-7-0-4p-0-5p-0-7p-0-5p-0---|
a|-0-0--5-0-0--0-0--0-0--0-0--0---|
A|--------------------------------|
D|--------------------------------|

d|-5-7h-7-12-10-12>14-17---17---16---17---16---0-12-0-12-0-12-0-|
a|-0-0--5--0--0-0-0---------------------------------------------|
A|--------------------------------------------------------------|
D|--------------------------------------------------------------|

d|-17-16-12-14-14-12-10-9-7--|
a|--0------------------------|
A|---------------------------|
D|---------------------------|
Tap to rate this tab
 
# A B C D E F G H I J K L M N O P Q R S T U V W X Y Z