Song name
# A B C D E F G H I J K L M N O P Q R S T U V W X Y Z

Rem - Its The End Of The World As We Know It tab

------------------------------------------------------------------------
ITíS THE END OF THE WORLD AS WE KNOW IT (AND I FEEL FINE) - REM
------------------------------------------------------------------------
Tabbed by: Barnaby Wilde
Email:

Verse (Acoustic)
e|-3---3------1---0---|
B|-3---3------3---1---|
G|-0---0------3---2---|
D|-0---2------3---2---|
A|-2---3-x4---1---0---|
E|-3---0------1---0---|

Verse (Electric)
e|-3-3---0-0-0-0---0-0--0-0------1---0---|
B|-3-3---0-0-0-0---0-0--0--0-----3---1---|
G|-0-0---4-4-4-0---0-0--0---0----3---2---|
D|-0-0---5-5-5-5---5-5--5--------3---2---|
A|-2-2---0-0-0-0---0-3h-3---x4---1---0---|
E|-3-3---0-0-0-0---0-0--0--------1---0---|

Chorus (Acoustic)
e|-3---2---0-------3---2---0---0--|
B|-3---3---1-------3---3---1---1--|
G|-0---2---2-------0---2---2---0--|
D|-0---0---2-------0---0---2---2--|
A|-2-------0--x2---2-------0---3--|
E|-3-------0-------3-------0---0--|

Chorus (Electric)
e|-3---0---0------0-----|
B|-3---5---5------5b!---|
G|-0---7---x------5-----|
D|-0---7---7------0-----|
A|-2---0---7---x3-0-----|
E|-3---0---0------0-----|

Break
e|-3---0------1---1-1-1-1-1-1---|
B|-3---5------1---1-1-1-1-1-1---|
G|-0---5------2---2-2-2-2-2-2---|
D|-0---0------3---3-3-3-3-3-3---|
A|-2---0-x2---3---3-3-3-3-3-3---|
E|-3---0------1---1-0-1-0-1-0---|
Tap to rate this tab
 
# A B C D E F G H I J K L M N O P Q R S T U V W X Y Z