Song name
# A B C D E F G H I J K L M N O P Q R S T U V W X Y Z

Rem - Document tab

------------------------------------------------------------------------
		FINEST WORKSONG - REM
------------------------------------------------------------------------
Tabbed by: Barnaby Wilde
Email:

Intro:
Keep the open strings ringing, but mute the rest from time to time for 'scratch' sound.
e|-0---|
B|-0---|
G|-8---|
D|-9---|
A|-9---|
E|-7---|

Verse
e|-0-0-0--|
B|-0--0-0-|
G|-8------|
D|-9------|
A|-9------|
E|-7------|

Verse Slide
e|--------|
B|--------|
G|-11<9---|
D|--9<7---|
A|--------|
E|--------|

Chorus
e|-0---2---|
B|-0---2---|
G|-1---3---|
D|-2---4---|
A|-2---4---|
E|-0---2---|

Middle Bridge
e|-0---|
B|-0---|
G|-6---|
D|-7---|
A|-7---|
E|-5---|

End
A mix of harmonic and notes, harmonic in parenthesis
e|--0---(10)---10--------|
B|--0---(10)----x--------|
G|-(9)----9---(12)----0--|
D|-(9)----9-----0---(12)-|
A|-----------------------|
E|--------------x2-------|

------------------------------------------------------------------------
		WELCOME TO THE OCCUPATION - REM
------------------------------------------------------------------------
Tabbed by: Barnaby Wilde
Email:


Intro
e|-0---0------------------------|
B|-0---3------------------------|
G|-0---2------------------------|
D|-2---0------------------------|
A|-0----------------------------|
E|-0----------------------------|

Verse
e|--------------0---|
B|---0---2---0---2--|
G|--0-0-0-0-0-0---0-|
D|-2---0---2---0----|
A|------------------|
E|------------------|

Chorus
e|--0-0-0-0-0-0-0-0-0-0-0-2-0-|
B|---0-3-3---0-3-3---0-3------|
G|-4-------4-------4----------|
D|----------------------------|
A|----------------------------|
E|----------------------------|

Middle Bridge
e|--0--0--0-0--0--0---0--0--0-0--0-0-----3---2--|
B|---1--1----1--1------0--0----0--0------3---3--|
G|-2--2--2----2--2---4--4--4----4--4-----0---2--|
D|----------------------------------x2---0---0--|
A|---------------------------------------2------|
E|---------------------------------------3------|

End
e|-0---0---0---|
B|-3---3---0---|
G|-4---2---0---|
D|-0---0---2---|
A|---------2---|
E|---------0---|



------------------------------------------------------------------------
		EXHUMING MCCARTHY - REM
------------------------------------------------------------------------
Tabbed by: Barnaby Wilde
Email:

Verse Progression 1
e|-4---4---4---4---4---4---2---------|
B|-4---6---4---6---4---6---2---------|
G|-5---6---5---6---5---6---3---------|
D|-6---6---6---6---6---6---4---------|
A|-6---4---6---4---6---4---4---------|
E|-4---4---4---4---4---4---2---------|

Verse Progression 1 cont.
e|-4---4---4---4---4---4---6---4------|
B|-4---6---4---6---4---6---8---6------|
G|-5---6---5---6---5---6---8---6------|
D|-6---6---6---6---6---6---8---6------|
A|-6---4---6---4---6---4---6---4------|
E|-4---4---4---4---4---4---6---4------|

1st Chorus Lead
e|------------------------2--------------------------|
B|-------------------------0-------------------------|
G|------4b-4b-4b-2-----2-4--4b-2------2---2-2-2-2-4b-|
D|----------------4-2-4---------4h-2-4-4-4-4---4-----|
A|---------------------------------------------------|
E|-0-2-----------------------------------------------|

e|-----------------------------------|
B|-----------------------------------|
G|-6-4-2--------2--------------------|
D|------2-2-4h-4-4-2-2-4h-2-4h-2-4h--|
A|-----------------------------------|
E|-----------------------------------|

Verse Progression 2 Begins 2nd Verse
e|-2---2-4---2-2-----|
B|-2---4-6---4-2-----|
G|-3---4-6---4-3-----|
D|-4---4-6---4-4-----|
A|-4---2-4---2-4-x4--|
E|-2---2-4---2-2-----|

2nd Chorus Lead
e|------------------------2----------------------------|
B|-------------------------0---------------2-2---------|
G|------4b-4b-4b-2-----2-4--4b-2------2-2-4-4-4-2------|
D|----------------4-2-4---------4h-2-4-4---------4-2-4-|
A|-----------------------------------------------------|
E|-0-2-------------------------------------------------|

e|---------------|
B|----------5-7b-|
G|-2-4-2-4>6-6---|
D|--4------------|
A|---------------|
E|---------------|

Middle Bridge
e|--8---6------8---6---4---2---|
B|--8---8-----10---8---6---4---|
G|--9---8-----10---8---6---4---|
D|-10---8-----10---8---6---4---|
A|-10---6-x3---8---6---4---2---|
E|--8---6------8---6---4---2---|

End Progression
e|-2---2---2---2---2---2---0---2------|
B|-2---4---2---4---2---4---0---4------|
G|-3---4---3---4---3---4---1---4------|
D|-4---4---4---4---4---4---2---4------|
A|-4---2---4---2---4---2---2---2------|
E|-2---2---2---2---2---2---0---2------|

e|-2---2---2---2---2---2---4---2---2---|
B|-2---4---2---4---2---4---6---4---2---|
G|-3---4---3---4---3---4---6---4---3---|
D|-4---4---4---4---4---4---6---4---4---|
A|-4---2---4---2---4---2---4---2---4---|
E|-2---2---2---2---2---2---4---2---2---|

------------------------------------------------------------------------
		EXHUMING MCCARTHY - REM
------------------------------------------------------------------------
Tabbed by: Barnaby Wilde
Email:

Riff (Guitar 2 plays D and lets ring)
e|----------------------|
B|----------------------|
G|-2-2-0-4-2-2-2-4h-0---|
D|-0--0-0-0-0------2----|
A|----------------------|
E|----------------------|

Verse
e|------0---0--0----|
B|------3--3-3--3---|
G|------2-2---2-----|
D|----0-0-----------|
A|-2-3--------------|
E|------------------|

Chorus
e|-0---0---0-0---0-0---0---0---|
B|-0---0---0-0---0-0---0---0---|
G|-4---6---4-6---4-6---4---6---|
D|-5---7---5-7---5-7---5---7---|
A|-5---7---5-7---5-7---5---7---|
E|-3---5---3-5---3-5---3---5---|

Lead
e|------------------------|
B|--------8-10b-888-10b---|
G|-0-999-0------000-------|
D|-0-000------------------|
A|--------------------x4--|
E|------------------------|

e|---------------0---|
B|-8-10>15-14-12<2---|
G|-0-------------3---|
D|---------------0---|
A|-------------------|
E|-------------------|

------------------------------------------------------------------------
		STRANGE - REM
------------------------------------------------------------------------
Tabbed by: Barnaby Wilde
Email:

Verse
e|-0-0---0-0---0-0---3-3---|
B|-0-0---0-0---0-0---3-3---|
G|-4-4---4-4---4-4---5-5---|
D|-5-5---5-5---5-5---5-5---|
A|-5-5---5-5---5-5---3-3---|
E|-3-3---3-3---3-3---3-3---|

Chorus
e|-0---0---0---0---|
B|-0---0---0---2---|
G|-1---1---1---2---|
D|-2---2---2---2---|
A|-2---2---2---0---|
E|-0---0---0---0---|

Lead
e|-------------------|
B|-----------5-------|
G|-----7b-7-0-5b-0---|
D|-5b-0--9-9---------|
A|--------------x2---|
E|-------------------|

e|-------------------|
B|-----------5-------|
G|-----7b-7-0-5b-0-4-|
D|-5b-0--9-9---------|
A|-------------------|
E|-------------------|

------------------------------------------------------------------------
IT'S THE END OF THE WORLD AS WE KNOW IT (AND I FEEL FINE) - REM
------------------------------------------------------------------------
Tabbed by: Barnaby Wilde
Email:

Verse (Acoustic)
e|-3---3------1---0---|
B|-3---3------3---1---|
G|-0---0------3---2---|
D|-0---2------3---2---|
A|-2---3-x4---1---0---|
E|-3---0------1---0---|

Verse (Electric)
e|-3-3---0-0-0-0---0-0--0-0------0---0---|
B|-3-3---0-0-0-0---0-0--0--0-----6---5---|
G|-0-0---4-4-4-0---0-0--0---0----7---x---|
D|-0-0---5-5-5-5---5-5--5--------8---7---|
A|-2-2---0-0-0-0---0-3h-3---x4---8---7---|
E|-3-3---0-0-0-0---0-0--0--------0---0---|

Chorus (Acoustic)
e|-3---2---0-------3---2---0---0--|
B|-3---3---1-------3---3---1---1--|
G|-0---2---2-------0---2---2---0--|
D|-0---0---2-------0---0---2---2--|
A|-2-------0--x2---2-------0---3--|
E|-3-------0-------3-------0---0--|

Chorus (Electric)
e|-3---0---0------0-----|
B|-3---5---5------5b!---|
G|-0---7---x------5-----|
D|-0---7---7------0-----|
A|-2---0---7---x3-0-----|
E|-3---0---0------0-----|

Break
e|-3---0------1---1-1-1-1-1-1---|
B|-3---5------1---1-1-1-1-1-1---|
G|-0---5------2---2-2-2-2-2-2---|
D|-0---0------3---3-3-3-3-3-3---|
A|-2---0-x2---3---3-3-3-3-3-3---|
E|-3---0------1---1-0-1-0-1-0---|

------------------------------------------------------------------------
		THE ONE I LOVE - REM
------------------------------------------------------------------------
Tabbed by: Barnaby Wilde
Email:

Intro/Chorus Riff
e|--------------------------------0-0---|
B|-----------5-3>5-5p0-0-3-5-3-5-0-0----|
G|--------------------------------------|
D|---------0----------------------------|
A|-2-2-2---5----------------------------|
E|-0-0-3-5-5----------------------------|

Verse
e|-0--0---0--0--0--0--0-0-0-0---|
B|-0---0---3--3-----0--3-0-0----|
G|-0----0---2--2-----0----------|
D|-2-2---0--------2-------------|
A|-2--------------2-------------|
E|-0--------------0-------------|

Verse
e|-3-3-3-0-3-3-3-0-3-3-3-0-3-3-3-3---|
B|-3-3-3-3-3-3-3-3-1-1-1-1-1-1-1-1---|
G|-0-0-0-0-2-2-2-2-0-0-0-0-0-0-0-0---|
D|-0-0-0-0-0-0-0-0-2-2-2-2-2-2-2-2---|
A|-2-2-2-2---------3-3-3-3-3-3-3-3---|
E|-3-3-3-3---------0-0-0-0-0-0-0-0---|

Lead
e|------------------------------------------|
B|----3-5-3---3-5-3---3-5-3-3-5h-3----------|
G|-2>4-4---2>4-4---2>4-4----------4-2-0-----|
D|-------------------------------------2-0--|
A|------------------------------------------|
E|------------------------------------------|

e|---------------------0------|
B|---------3------------0-----|
G|--0-0-2>4-4-2-0-----0-------|
D|-2-------------2p0-2--------|
A|----------------------------|
E|-----------------------3b-0-|

End
e|---------5-6-7--|
B|---------7-8-8--|
G|---------7-8-9--|
D|-2-------7-8-9--|
A|-2-----5-5-6-7--|
E|-0-3b-5--5-6-7--|

------------------------------------------------------------------------
		FIREPLACE - REM
------------------------------------------------------------------------
Tabbed by: Barnaby Wilde
Email:

Intro:
e|-2-----2-------|
B|--0-0---0-0----|
G|---3-3---3-3---|
D|------4-----4--|
A|---------------|
E|---------------|

Verse
e|---------0---0---|
B|---------0---0---|
G|-3---6---7---5---|
D|-4---7---7---5---|
A|-4---7---5---3---|
E|-2---5---0---0---|

Chorus
e|-1--1--1>3--3-----3---1---|
B|-1---1-1>3---3----5---3---|
G|-2-2---2>4-4------5---3---|
D|-3-----3>5--------5---3---|
A|-3-----3>5---x2---3---1---|
E|-1-----1>3--------3---1---|

e|-1--1--1>3--3----3---|
B|-1---1-1>3---3---3---|
G|-2-2---2>4-4-----4---|
D|-3-----3>5-------5---|
A|-3-----3>5---x2--5---|
E|-1-----1>3-------3---|

Break
e|-4-2-2---------|
B|-2-2-0-----0---|
G|-----0-2-4-4---|
D|------------x3-|
A|---------------|
E|---------------|

Break (Guitar 1)
e|------------------|
B|------------------|
G|-3---6---11----9--|
D|-4---7---12---10--|
A|-4---7---12---10--|
E|-2---5---10----8--|

Break (Guitar 2)
e|------------------|
B|--7-5------7-5----|
G|-----6--------5---|
D|------------------|
A|------------------|
E|------------------|

End
e|-4-2-2---------|
B|-2-2-0-----0---|
G|-----0-2-4-4---|
D|---------------|
A|---------------|
E|---------------|

------------------------------------------------------------------------
		LIGHTNIN' HOPKINS - REM
------------------------------------------------------------------------
Tabbed by: Barnaby Wilde
Email:

Verse
e|-0-0-0-0-0-0-0-0-0-0-0--0-0---|
B|-0-0-0-0-0-0-0-0-0-0-0--0-0---|
G|-0-0-0-0-0-0-0-0-0-0-0--0-0---|
D|-7-x-7-x-7-0-0-7-x-7-9b-0-7---|
A|-0-0-0-0-0-0-7-0-0-0-0--0-0---|
E|-0-0-0-0-0-0-0-0-0-0-0--0-0---|

Chorus
e|--0----0---0---0---0---0---0---0---0---0--|
B|-10---10---0---0---0---0---0---0---0---0--|
G|--9----9---0---7b--0---9b--0---7b--0---9b-|
D|--0----0---0---0---0---0---0---0---0---0--|
A|--0----0---0---0---0---0---0---0---0---0--|
E|--0----0---0---0---0---0---0---0---0---0--|

Chorus (Slide Guitar)
e|----------------------------------------|
B|-8>10-0-8>10-0--------------------------|
G|--------------6>7<6>9-9-0-6>7<6>9-9-0---|
D|----------------------------------------|
A|----------------------------------------|
E|----------------------------------------|

Middle Bridge
e|-------------------|
B|---0--0----0--0----|
G|--9--9-9--9--9-9---|
D|-7--9---10--9------|
A|-------------------|
E|-------------------|

------------------------------------------------------------------------
		KING OF BIRDS - REM
------------------------------------------------------------------------
Tabbed by: Barnaby Wilde
Email:

Guitar
Verse
e|-0---0-0---|
B|-0---3-3---|
G|-7---0-2---|
D|-7---------|
A|-5---------|
E|-0---------|

Chorus
e|-3---3-3-3---2---2---0---|
B|-3---3-3-3---2---2---2---|
G|-4---4-5-4---3---3---2---|
D|-5---5-5-5---4---4---2---|
A|-5---5-3-5---4---4---0---|
E|-3---3-3-3---2---2---0---|

Middle Bridge
e|-7---7---7---7--|
B|-7---9---7---9--|
G|-8---9---8---9--|
D|-9---9---9---9--|
A|-9---7---9---7--|
E|-7---7---7---7--|

Dulcimer Intro:
d|-10---9---0-----0---5-7h>10-10-10-9-7---|
a|--0---0---0---4b----0-0---0--0--0-0-5---|
A|--0---0---0-------------------------0---|
D|--0---0---0-------------------------0---|

d|-7-0-------------------7-------|
a|-5-5-0-2p-0-4p-0-5-5-0-5-------|
A|-0-0-------------------0-------|
D|-0-0-------------------0-------|

d|-7-7-7-7-7-5-4-0--|
a|-5-5-5-5-5-0-0-0--|
A|-0-0-0------------|
D|-0-0-0------------|

"A thumbnail sketch ..."
d|-7-0-------------------7-------|
a|-5-5-0-4p-0-4p-0-5-5-0-5-------|
A|-0-0-------------------0-------|
D|-0-0-------------------0-------|

"A mean idea ..."
d|-7-0---------------|
a|-5-5---------------|
A|-0-0---------------|
D|-0-0---5b-4-0-2-0--|

"Old man ..."
d|-7-0---12-10-9-0---|
a|-5-5---------------|
A|-0-0---------------|
D|-0-0---------------|

"point to point ..."
d|-7-0--------------------|
a|-5-5---4-5p-0-4-0-5-5-4-|
A|-0-0--------------------|
D|-0-0--------------------|

"Standing on the shoulders ..."
d|-7-0---------------|
a|-5-5---5p-0-4-0-5-0|
A|-0-0---------------|
D|-0-0---------------|

"Leaves me cold ..."
d|-7-0----------------------|
a|-5-5-0-4p-0-4p-0-5-4b-0---|
A|-0-0----------------------|
D|-0-0----------------------|

That's the first verse. All other riffs are variations on these, so feel free to play 
around.  Bend and pull off on the 2nd and 4th fret.  Everything builds off of the chord on 
the 5th and 7th fret, so as long as you return there you’re golden.

End
At "Everybody hit the ground" the dulcimer focuses on the high d string.
d|-5-7h-7-12-10-9-7-----|
a|-0-0--5--0--0-0-0-----|
A|----------------------|
D|----------------------|

d|-5-7h-7-0-4p-0-5p-0-7p-0-5p-0---|
a|-0-0--5-0-0--0-0--0-0--0-0--0---|
A|--------------------------------|
D|--------------------------------|

d|-5-7h-7-12-10-12>14-17---17---16---17---16---0-12-0-12-0-12-0-|
a|-0-0--5--0--0-0-0---------------------------------------------|
A|--------------------------------------------------------------|
D|--------------------------------------------------------------|

d|-17-16-12-14-14-12-10-9-7--|
a|--0------------------------|
A|---------------------------|
D|---------------------------|

------------------------------------------------------------------------
		ODDFELLOWS LOCAL 151 - REM
------------------------------------------------------------------------
Tabbed by: Barnaby Wilde
Email:

Verse:
e|------------------0-------|
B|------------------5-------|
G|-0----0-----0-----0-------|
D|-2-xx-2-xxx-2-xxx-2-xxx---|
A|-2-xx-2-xxx-3-xxx-3-xxx---|
E|-0----0-----0-----0-------|

e|------------------0-0-0---|
B|------------------5-5-5---|
G|-0----0-----0-----0-0-0---|
D|-2-xx-2-xxx-2-xxx-2-2-2---|
A|-2-xx-2-xxx-3-xxx-3-3-3---|
E|-0----0-----0-----0-0-0---|

Chorus:
e|-----5-------5b--|
B|-----5-------5---|
G|-0---0---0---0---|
D|-2-------2-------|
A|-2-------2-------|
E|-0-------0-------|

Lead:
e|--------0-0---------|
B|-0-1-0-6-5-4-5p-4---|
G|------0----------4--|
D|--------------------|
A|--------------------|
E|--------------------|

End Riffs/Lead
Variate below for 16 measures
e|-0-0--0---|
B|-5-4b-5---|
G|-0-0--0---|
D|----------|
A|----------|
E|----------|

Then this for 12
e|-0----------------------12--12-----------|
B|--0-4b-4>12b-12-12-12-12-12---4b-4-12b---|
G|-----------------------------------------|
D|-----------------------------------------|
A|-----------------------------------------|
E|-----------------------------------------|
Tap to rate this tab
 
# A B C D E F G H I J K L M N O P Q R S T U V W X Y Z